Motor Ace - Chairman Of The Board Chords & Tabs

 

Chairman Of The Board Chords & Tabs

Motor Ace Chords & Tabs

Version: 1 Type: Tab 0 ratings
1 star 2 stars 3 stars 4 stars 5 stars
comments

Chairman Of The Board Tab

   
Chairman of the Board - motor ace

tabbed by ecca

Another band i caught at mmf - damn good set too... i wasn't sober enough
to catch their way of playing it but this sounds..umm... reasonable - it
is by no means accurate but it comes out alright if you turn the amps and
distortion high and drop d (i only drop d for ease of playing/changing -
it might sound better standard - just turn em into power chords i guess)
any comments feel free to send: ecca@ericsmail.com

CHANGED TO EADGBE


intro/bridge
D                     E F#  A    E F#  D
----------------------------------------2--------
----------------------------------------3--------
----------------------------------------2--------
-0--------------x-x---2-4---7----2-4----0--------
-0-(let ring)---x-x---2-4---7----2-4----0--------
-0--------------x-x---0-2---5----0-2----0--------

(TRY AN OPEN A AS WELL - NOT AS GOOD - X02220)

verse: fool around with with this - all palm muted like above

pre chorus
(p.m--)
-2-2-2----------------------------------------------------
-3-3-3----------------------------------------------------
-2-2-2----------------------------------------------------
-0-0-0--7-7-7-4-4-4-7-7-7-4-4-4-7-9-7---------------------
-0-0-0--7-7-7-4-4-4-7-7-7-4-4-4-7-9-7---------------------
-0-0-0--5-5-5-2-2-2-5-5-5-2-2-2-5-7-5---------------------
'Working overtime....'
[ Tab from: http://www.guitartabs.cc/tabs/m/motor_ace/chairman_of_the_board_tab.html ]
(p.m--------------------)
-2-2-2----------------------------------------------------
-3-3-3----------------------------------------------------
-2-2-2----------------------------------------------------
-0-0-0--5-5-5---------------------------------------------
-0-0-0--5-5-5---(repeat)----------------------------------
-0-0-0--3-3-3---------------------------------------------
'by your own design'


chorus
      B       G#      A
----------------------------------------------------------------------
----------------------------------------------------------------------
----------------------------------------------------------------------
------9---9---6---6---7---7---7---7-----------------------------------
------9---9---6---6---7---7---7---7-----------------------------------
------7---7---4---4---5---5---5---5-----------------------------------
	got...  atten.. chairmain....
(im sure theres a better way to play this - try A shaped power chords)



NORMAL
interlude (follows same timing as chorus)
----7-7-7-7-4-4-4-4-5-5-5-5-5-5-5-5-----------------------------------
----------------------------------------------------------------------
----------------------------------------------------------------------
----------------------------------------------------------------------
----------------------------------------------------------------------
----------------------------------------------------------------------
Comments