Motograter - Red Chords & Tabs

 

Red Chords & Tabs

Motograter Chords & Tabs

Version: 2 Type: Tab 0 ratings
1 star 2 stars 3 stars 4 stars 5 stars
comments

Red Tab

No one hass any tabs for Motograter so I'd tab one for all you fans out there. 
Easy Song to play so here it is: 
ENJOY!!! 

Drop D 2 1/2 Steps Down 



intro 
B |-------------------------------------| 
F#|-------------------------------------| 
D |-------------------------------------| 
A |-1-0-0--1-0-0--1-0-0--1-0-0--1-0-1-0-| 
E |-1-0-0--1-0-0--1-0-0--1-0-0--1-0-1-0-| 4x 
A |-1-0-0--1-0-0--1-0-0--1-0-0--1-0-1-0-| 
P.M.................................... 

Verse (0:16) 
B |----------------------------| 
F#|----------------------------| 
D |----------------------------| 
A |-0---3---1---4--------------|8x 
E |-0---3---1---4--0-4-3-0-3---| 
A |-0---3---1---4--0-4-3-0-3---| 
|Hold Notes | ....... hold note 

Bridge (0:42) 
B |----------------------------| 
F#|----------------------------| 
D |----------------------------| 
A |--7-------------------------|3x 
E |--5-------------------------| 
A |--0-------------------------| 
"In the valley of light.." 

End of Bridge (1:08) 
B |-------| 
F#|-------| 
D |-------| 
A |--7\0--|1x 
E |--5\0--| 
A |--0----| 

Verse (1:09) 
B |----------------------------| 
F#|----------------------------| 
D |----------------------------| 
A |-0---3---1---4--------------|8x 
E |-0---3---1---4--0-4-3-0-3---| 
A |-0---3---1---4--0-4-3-0-3---| 
|Hold Notes | ....... hold note 
[ Tab from: http://www.guitartabs.cc/tabs/m/motograter/red_tab_ver_2.html ]
Bridge (1:35) 
B |----------------------------| 
F#|----------------------------| 
D |----------------------------| 
A |--7-------------------------|3x 
E |--5-------------------------| 
A |--0-------------------------| 
In the stories of time.... 

End of Bridge (2:02) 
B |-------| 
F#|-------| 
D |-------| 
A |--7\0--|1x 
E |--5\0--| 
A |--0----| 

Verse (2:03) 
B |----------------------------| 
F#|----------------------------| 
D |----------------------------| 
A |-0---3---1---4--------------|8x 
E |-0---3---1---4--0-4-3-0-3---| 
A |-0---3---1---4--0-4-3-0-3---| 
|Hold Notes | ....... hold note 

"Red" (2:29) 
B |-----------------| 
F#|-----------------| 
D |-----------------| 
A |-1-0---1-0---1-0-|8x 
E |-1-0---1-0---1-0-| 
A |-1-0---1-0---1-0-| 
P.M............... 

"RED!!!..Needles and Pins...." 
(2:46) 
B |--------------------| 
F#|--------------------| 
D |--------------------| 
A |-1-0---1-0---1-0----|8x 
E |-1-0---1-0---1-0----| 
A |-1-0---1-0---1-0----| 
hold note 


Verse (3:09) 
B |----------------------------| 
F#|----------------------------| 
D |----------------------------| 
A |-0---3---1---4--------------|8x 
E |-0---3---1---4--0-4-3-0-3---| 
A |-0---3---1---4--0-4-3-0-3---| 
|Hold Notes | ....... hold note 


Outro (3:35) 
B |----------------------| 
F#|----------------------| 
D |----------------------| 
A |-1-0--1-0--1-0--1-0---|4x 
E |-1-0--1-0--1-0--1-0---| 
A |-1-0--1-0--1-0--1-0---| 
P.M................hold note 

There it is in it's entirety. Enjoy.
Comments