Motograter - Red Chords & Tabs

 

Red Chords & Tabs

Motograter Chords & Tabs

Version: 1 Type: Tab 0 ratings
1 star 2 stars 3 stars 4 stars 5 stars
comments

Red Tab

pretty easy song to learn, it sounds great.
use heavy distortion

 intro
D---1xx1xx1xx1xx1111--- x4
A---1xx1xx1xx1xx1111---
E---1xx1xx1xx1xx1111---

main riff:
D----0---3---1-4xx3---- x8
A----0---3---1-4xx3----
E----0---3---1-4xx3----

verse:
D------------------5-----------------------------------------7---------  x2
A------------------3-----------------------------------------5---------
E------------------0-----------------------------------------0---------
"in the valleys of light"
[ Tab from: http://www.guitartabs.cc/tabs/m/motograter/red_tab.html ]
D-----0-------
A-----7-------
E-----5-------

chorus:
D----0---3---1-4xx3---- x8
A----0---3---1-4xx3----
E----0---3---1-4xx3----

verse:
D------------------5-----------------------------------------7---------  x2
A------------------3-----------------------------------------5---------
E------------------0-----------------------------------------0---------
        "in the stories of time"

D-----0-------
A-----7-------
E-----5-------

chorus:
D ----0---3---1-4xx3---- x8
A ----0---3---1-4xx3----
E ----0---3---1-4xx3----

interlude:
D----10101010----- x12
A----10101010-----   
Comments