Motograter - Collapse Chords & Tabs

 

Collapse Chords & Tabs

Motograter Chords & Tabs

Version: 1 Type: Tab

Collapse Tab

   
Collapse from Motograter
Tuning: A-E-A-D-F#-B or 7 string AEADGBe
(Motograter DOES play 6 string though)

Intro/Verse
-----------------|
-----------------|
-----------------|
-55-555-555-5556-|
-55-555-555-5556-|
-55-555-555-5556-|
[ Tab from: http://www.guitartabs.cc/tabs/m/motograter/collapse_tab.html ]
Chorus(don't play lower part on last time)
--------------------------------------------------|
--------------------------------------------------|
-101010101010101010/7777777-----------------------|
--8-8-8-8-8-8-8-8-8/5555555-----------------------|
--6-6-6-6-6-6-6-6-6/3333333--5-5-6p5-55-55-6p5-55-|
-----------------------------5-5-6p5-55-55-6p5-55-|
                             . .     .. ..     ..
Interlude(leave a pause first)
------------------------------|
------------------------------|
------------------------------|
----------------------666-6-6-|
-6p5-55-6p5-55-6p5-55-444-4-4-|
-6p5-55-6p5-55-6p5-55---------|
                      ... . .
Outro(slide down at end, not pickscrape0
--------------------------------|
--------------------------------|
--------------------------------|
--------------------------------|
-5-5-6p5-55-55-6p5-55-5-5--x//--|
-5-5-6p5-55-55-6p5-55-5-5--x//--|
 . .     .. ..     .. . .
-Play the above twice, then the below four time:

----------------------|
----------------------|
----------------------|
----------------------|
-5-5-6p5-55-55-6p5-55-|
-5-5-6p5-55-55-6p5-55-|
 . .     .. ..     ..