Motley Crue - Without You Chords & Tabs

 

Without You Chords & Tabs

Motley Crue Chords & Tabs

Version: 1 Type: Tab 0 ratings
1 star 2 stars 3 stars 4 stars 5 stars
comments

Without You Tab

   
##################################################################################
# This file is the author's own work and represents their interpretation of the  #
# song. You may only use this file for private study, scholarship, or research.  #
##################################################################################

Song: Without You
Artists: Motley Crue
Words by Nikki Sixx
Tabbed by: Conart_cry@YAHOO.com(no spam please!)

The song is in D tuning(420), but I'm going to write it in normal tuning.

Intro:
Gtr 1 - acoustic
       F                Dm            F                   Dm
Gtr.2 - elect. w/slide
    Long Slide
E|----|----------------------------|--------------------------------|
B|----|----------------------------|--------------------------------|
G|-2--|/--10---~~~~----12/14~~~-\--|-0/7-/-10-12\10/12-\--7-~~~~~~--|
D|----|----------------------------|--------------------------------|
A|----|----------------------------|--------------------------------|
E|----|----------------------------|--------------------------------|

  Gm      Am  /  Bb
E|--------------------------------|
B|-11\10--------------------------|
G|--------10--7--7/10-~~~~~~------|
D|--------------------------------|
A|--------------------------------|
E|--------------------------------|


Pre-Chorus:                                                   (Gtr.3)
  Bb              A5                    G#                     C
E|------------------------------------|-------------------------------12-13-12---------|
B|------------------------------------|----------------------------13----------13------|
G|------------------------------------|------------------------/12----------------12---|
D|------------------------------------|----------------------------------------------10|
A|------------------------------------|------------------------------------------------|
E|-6~~~~~~--------5~~~~~~~~~----------|--4~~~~~~~~-------------/8~~~~~~~---------------|
    Without you,   without you            Like a sailor lost at sea

       Bb             A5                     G#
E|------------------------------------|------------------------------------|
B|------------------------------------|------------------------------------|
G|------------------------------------|-------5------(5)-------------------|
D|-(10)-------------------------------|-------6------(6)-------------------|
A|------------------------------------|-------6------(6)-------------------|
E|------6~~~~~---------5-~~~~~~-------|-------4------(4)-------------------|
         Without you   wo  .   man        The world comes down on me!

Chorus

[ Tab from: http://www.guitartabs.cc/tabs/m/motley_crue/without_you_tab.html ]
 F                Dm            F                   Dm
    Long Slide
E|----|----------------------------|--------------------------------|
B|----|----------------------------|--------------------------------|
G|-2--|/--10---~~~~----12/14~~~-\--|---/---10-12\10/12-\--7-~~~~~~--|
D|----|----------------------------|--------------------------------|
A|----|----------------------------|--------------------------------|
E|----|----------------------------|--------------------------------|

  Gm      Am  /  Bb
E|--------------------------------|
B|-11\10--------------------------|
G|--------10--7--7/10-~~~~~~------|
D|--------------------------------|
A|--------------------------------|
E|--------------------------------|


Verse

Pre-chorus

Chorus

Bridge


Rythm riff
(With pinch harmonics 2nd time)
E|----------------------|
B|----------------------|
G|----------------------|
D|----------------------|
A|--------0--1--3~~~~---|
E|--\--1----------------|


Guitar solo:

       Bb               Dm             G#                        C
    Long Slide
E|----|----------------------------|----------------------------------|
B|----|----------------------------|----------------------------------|
G|-2--|/--10~~~~-9/10-\--5--~~~~---|--5/(7)\5--7---5/7\5---7-----9~~~-|
D|----|----------------------------|----------------------------------|
A|----|----------------------------|----------------------------------|
E|----|----------------------------|----------------------------------|

       Bb               Dm             G#                         C
    Long Slide
E|----|----------------------------|----------------------------------|
B|----|----------------------------|----------------------------------|
G|-2--|/--10~~~~-9/10-\--5--~~~~---|--5/(7)\5--7---5/7\5/7\5--7-\-5~~~|
D|----|----------------------------|----------------------------------|
A|----|----------------------------|----------------------------------|
E|----|----------------------------|----------------------------------|

   Bb                Dm               G#                              C
E|---------------------13/(15)\13--|-13/(15)-\-(10)--10/--15~~--13-10-8~~-|
B|----10-11-13-11-10---------------|--------------------------------------|
G|-10----------------10------------|--------------------------------------|
D|---------------------------------|--------------------------------------|
A|---------------------------------|--------------------------------------|
E|---------------------------------|--------------------------------------|
  
   Bb                       Dm              G#(Stop)         (Into chorus)
E|-18\17---------18\17-18-/-20~~~--|-(20)\--/4---/6--/8---/11---/-13~~~~--|
B|-------1818----------------------|--------------------------------------|
G|---------------------------------|--------------------------------------|
D|---------------------------------|--------------------------------------|
A|---------------------------------|--------------------------------------|
E|---------------------------------|--------------------------------------|

Chorus



Questions, comments or maybe request, please Private Message me if you're a member of GTU!
Comments