Motley Crue - Wild Side Chords & Tabs

 

Wild Side Chords & Tabs

Motley Crue Chords & Tabs

Version: 5 Type: Tab 0 ratings
1 star 2 stars 3 stars 4 stars 5 stars
comments

Wild Side Tab

wild side
motley crue

d tuning -DAFCGD

/-slide
^-pre bend  with bar
p-pull off

intro x4
only on first time
---/-|------------------------------------------------------------------------|
-----|--------------------------------------------------8--8--7---7----8p7----|
-----|-------5---5-4-----5-----5-----5/7----5--5-4------7--7--7-----7-------7-|
-----|-------5---5-4-----5-----5~----5/7----5--5-4------7--7--7---------------|
--0^-|----0----------0-0---0-0---0-0-----0---------0-0------------------------|
-----|------------------------------------------------------------------------|

pre verse x1
-----------------------------------------------------------------|
-----------------------------------------------------------------|
-----------------------------------------------------------------|
-----------------------------------------------------------------|
-0-0-0-0-0-0-0-0-0-0-0-0-0-0-0-0-0-0-0-0-0-0-0-0-0-0-0-0-0-0-0-0-|
-----------------------------------------------------------------|

verse x1
--------------------------------------------------------|
----------------------------------------------8p7---8p7-|
-9-7--9-7--7-5--9-7--9-7--9-7--7-5--9-7----7------7-----|
-7-7--7-7--5-5--7-7--7-7--7-7--5-5--7-7-----------------|
--------------------------------------------------------|
--------------------------------------------------------|

chorus x2
---------------------------------------------------------------------------|
----------------------------------------------------8--8--7---7-----8p7----|
---------5---5-4-----5-----5-----5/7----5---5-4-----7--7--7-----7--------7-|
---------5---5-4-----5-----5~----5/7----5---5-4-----7--7--7----------------|
------0----------0-0---0-0---0-0------0---------0-0------------------------|
---------------------------------------------------------------------------|

pre verse x1
-----------------------------------------------------------------|
-----------------------------------------------------------------|
-----------------------------------------------------------------|
-----------------------------------------------------------------|
-0-0-0-0-0-0-0-0-0-0-0-0-0-0-0-0-0-0-0-0-0-0-0-0-0-0-0-0-0-0-0-0-|
-----------------------------------------------------------------|

verse x1
-------------------------------------------------------|
---------------------------------------------8p7---8p7-|
-9-7--9-7--7-5--9-7--9-7--9-7--7-5--9-7----7-----7-----|
-7-7--7-7--5-5--7-7--7-7--7-7--5-5--7-7----------------|
-------------------------------------------------------|
-------------------------------------------------------|

chorus x2
---------------------------------------------------------------------------|
----------------------------------------------------8--8--7---7-----8p7----|
---------5---5-4-----5-----5-----5/7----5---5-4-----7--7--7-----7--------7-|
---------5---5-4-----5-----5~----5/7----5---5-4-----7--7--7----------------|
------0----------0-0---0-0---0-0------0---------0-0------------------------|
---------------------------------------------------------------------------|
[ Tab from: http://www.guitartabs.cc/tabs/m/motley_crue/wild_side_tab_ver_5.html ]
          w/bar bend down
----------||--|
-8--8--7--/---|
-7--7--7--5---|
-7--7--7--5---|
----------3---|
--------------|

bridge x3
----------------------------------------------------------------------|
----------------------------------------------------------------------|
------5--7--------------7--5---------------5--2-------------5--2------|
------5--7--------------7?-5---------------5--2-------------5--2------|
--0----------0----0-0-----------0----0-0----------0----0-0---------0--|
----------------------------------------------------------------------|

end bridge x1
-----------------------------------|
-----------------------------------|
------5--7------7--5-------5--2----|
------5--7------7--5-------5--2----|
--0----------0---------0---------0-|
-----------------------------------|

pre verse x1
------------------------------------------|
------------------------------------------|
------------------------------------------|
------------------------------------------|
-0-0-0-0-0-0-0-0-0-0-0-0-0-0-0-0-0-0-0-0--|
------------------------------------------|

verse x1
-------------------------------------------------------|
---------------------------------------------8p7---8p7-|
-9-7--9-7--7-5--9-7--9-7--9-7--7-5--9-7----7-----7-----|
-7-7--7-7--5-5--7-7--7-7--7-7--5-5--7-7----------------|
-------------------------------------------------------|
-------------------------------------------------------|

chorus x4
------------------------------------------------------------|
----------------------------------------------------8--8--7-|
---------5---5-4-----5-----5-----5/7----5---5-4-----7--7--7-|
---------5---5-4-----5-----5~----5/7----5---5-4-----7--7--7-|
------0----------0-0---0-0---0-0------0---------0-0---------|
------------------------------------------------------------|

x4                                  play on last time through
--------------------------------|-----------------------|
--------------------------------|-8--8--7---8--8--7-----|
----5---5-4------5-----5---5/7--|-7--7--7---7--7--7---5-|
----5---5-4------5-----5---5/7--|-7--7--7---7--7--7---5-|
--0----------0-0---0-0----------|---------------------3-|
--------------------------------|-----------------------|

bridge x3
----------------------------------------------------------------------|
----------------------------------------------------------------------|
------5--7--------------7--5---------------5--2-------------5--2------|
------5--7--------------7?-5---------------5--2-------------5--2------|
--0----------0----0-0-----------0----0-0----------0----0-0---------0--|
----------------------------------------------------------------------|

end bridge x1  w/street noises
-----------------------------------|
-----------------------------------|
------5--7------7--5-------5--2----|
------5--7------7--5-------5--2----|
--0----------0---------0---------0-|
-----------------------------------|

        __
      =/ /
     =/ /
    =/_/
     |_
     |_|
     |_|  any questions or corrections
     |_|   email me, valkeyrie3@hotmail.com -Crue
     |_|
     |_|
     |_|
  / |_|
 / | |_|  _
   |_| (
  |     / /
  | [===] |
 /  [===]/|
 |   ___/oo
   |---| o )
  ________/
Comments