Motley Crue - Wild Side Chords & Tabs

 

Wild Side Chords & Tabs

Motley Crue Chords & Tabs

Version: 1 Type: Tab 5 ratings
1 star 2 stars 3 stars 4 stars 5 stars
comments

Wild Side Tab

Motley Crue 
Wild Side
I hope this helps a little, ill try to add to it as much as i can





|---------------------------------------------------------------------------------------------------------------------------|
|---------------------------------------------------------------------------------------------------------------------------|
|-------3----3\2--0--3--3----3/5----------3---3----3\2----0-----7---7---5--------------------------------------------|
|-------3----3\2--0--3--3----3/5----------3---3----3\2----0-----5---5---5--------------------------------------------| 
|---------------------------------------------------------------------------------------------------------------------------| 
|---------------------------------------------------------------------------------------------------------------------------| 




|---------------------------------------------------------------------------------------------------------------------------|
|---------------------------------------------------------------------------------------------------------------------------|
|-------3----3\2--0--3--3----3/5----------3---3----3\2----0-----7---7---5--------------------------------------------|
|-------3----3\2--0--3--3----3/5----------3---3----3\2----0-----5---5---5--------------------------------------------|
|---------------------------------------------------------------------------------------------------------------------------| 
|---------------------------------------------------------------------------------------------------------------------------|




[ Tab from: http://www.guitartabs.cc/tabs/m/motley_crue/wild_side_tab.html ]
|---------------------------------------------------------------------------------------------------------------------------|
|---------------------------------------------------------------------------------------------------------------------------|
|---------------------------------------------------------------------------------------------------------------------------|
|---------------------------------------------------------------------------------------------------------------------------| 
|---------------------------------------------------------------------------------------------------------------------------| 
|---3-3-3-3-3-3-3-3-3-3-3-3-3-3-3-3-3-------------------------------------------------------------------------------| 




|---------------------------------------------------------------------------------------------------------------------------|
|---------------------------------------------------------------------------------------------------------------------------|
|------7---5-------7---5------5---3------7---5--------------------------------------------------------------------------|
|------7---5-------7---5------5---3------7---5--------------------------------------------------------------------------| 
|---------------------------------------------------------------------------------------------------------------------------| 
|---------------------------------------------------------------------------------------------------------------------------| 




|---------------------------------------------------------------------------------------------------------------------------|
|------7---5-------7---5-------5---3-------7---5------------------------------------------------------------------------|
|------7---5-------7---5-------5---3-------7---5------------------------------------------------------------------------|
|---------------------------------------------------------------------------------------------------------------------------| 
|---------------------------------------------------------------------------------------------------------------------------| 
|---------------------------------------------------------------------------------------------------------------------------| 

Comments