Motley Crue - White Punks On Dope Chords & Tabs

 

White Punks On Dope Chords & Tabs

Motley Crue Chords & Tabs

Version: 1 Type: Tab 0 ratings
1 star 2 stars 3 stars 4 stars 5 stars
comments

White Punks On Dope Tab

   
Band- Motley Crue
Song- White Punks On Dope

D tuning- DGCFAD

b- bend
- slide up
/- slide down

intro
------------------------------------------------------------------------|
------------------------------------------------------------------------|
--2--2--2--2--2------2--2--2--2--2------2--2--2--2--2-----2--2--2--2--2-|
--2--2--2--2--2------2--2--2--2--2------2--2--2--2--2-----2--2--2--2--2-|
--0--0--0--0--0------0--0--0--0--0------0--0--0--0--0-----0--0--0--0--0-|
------------------------------------------------------------------------|

---------------------------------------------------------|
---------------------------------------------------------|
---------------------------------------------------------|
--2--------------2--5--2--4----2--------------2--5--2--4-|
--0-----0--3--5----------------0-----0--3--5-------------|
---------------------------------------------------------|

---------------------------------------------------------|
---------------------------------------------------------|
---------------------------------------------------------|
--2--------------2--5--2--4----2--------------2--5--2--4-|
--0-----0--3--5----------------0-----0--3--5-------------|
---------------------------------------------------------|

----------------------------------------------------------------------|
----------------------------------------------------------------------|
--------------------------------------------------------------7-----5-|
--2--------------2--5--2--4-----4-----4-----4-----4-----4-----7-----5-|
--0-----0--3--5-----------------4-----4-----4-----4-----4-----5-----3-|
--------------------------------2-----2-----2-----2-----2-------------|

---------------------------------------------------------|
---------------------------------------------------------|
---------------------------------------------------------|
---------------------------------------------------------|
--2--------------2--5--2--4----2--------------2--5--2--4-|
--0-----0--3--5----------------0-----0--3--5-------------|

--------------------------------------------------------|
--------------------------------------------------------|
--2---------------------------------------------------7-|
--2------------------------------------------------7--5-|
--0---------0--0--0-----3--3--3-----4--4--4-----5--5----|
--------------------------------------------------------|

verse
------------------------------------------------|
------------------------------------------------|
------------------------------------------------|
--7--------9-----7--9----8--------10-----8---10-|
--5--------5-----5--5----6--------6------6----6-|
------------------------------------------------|

--------------------------------------------------------------|
--------------------------------------------------------------|
--------------------------------------------------------------|
------------------------------------------------7---9----7--9-|
--3--------5-----3--5----3--------5-----3--5----5---5----5--5-|
--1--------1-----1--1----1--------1-----1--1------------------|

-----------------------------------------------------------------|
-----------------------------------------------------------------|
-----------------------------------------------------------------|
--8--------10-----8--10------------------------------------------|
--6--------6------6--6-----3--3--3--3--3--3--3--3--3--3--3--3--3-|
---------------------------1--1--1--1--1--1--1--1--1--1--1--1--1-|

---------------------------------------------|
---------------------------------------------|
---------------------------------------------|
--7--------9-----7--9----8--------10---8--10-|
--5--------5-----5--5----6--------6----6---6-|
---------------------------------------------|

---------------------------------------------------------------|
---------------------------------------------------------------|
---------------------------------------------------------------|
------------------------------------------------7---9-----7--9-|
--3--------5-----3--5----3--------5-----3--5----5---5-----5--5-|
--1--------1-----1--1----1--------1-----1--1-------------------|

---------------------------------------------------|
---------------------------------------------------|
---------------------------------------------------|
--8--------10-----8--10----10--7---------10--7-----|
--6--------6------6--6------------10--8---------10-|
---------------------------------------------------|

chorus
---------------------------------------------------------|
---------------------------------------------------------|
---------------------------------------------------------|
--2--------------2--5--2--4----2--------------2--5--2--4-|
--0-----0--3--5----------------0-----0--3--5-------------|
---------------------------------------------------------|

---------------------------------------------------------|
---------------------------------------------------------|
---------------------------------------------------------|
--2--------------2--5--2--4----2--------------2--5--2--4-|
--0-----0--3--5----------------0-----0--3--5-------------|
---------------------------------------------------------|

--------------------------------------------------------------------|
--------------------------------------------------------------------|
------------------------------------------------------------7-----5-|
--2--------------2--5--2--4----4-----4-----4-----4-----4----7-----5-|
--0-----0--3--5----------------4-----4-----4-----4-----4----5-----3-|
-------------------------------2-----2-----2-----2-----2------------|

---------------------------------------------------------------------------|
---------------------------------------------------------------------------|
---------------------------------------------------------------------------|
---------------------------------------------------------------------------|
--7--7--7--7--7--7--7--7--7--7--7--7----3--3--3--3--3--3--3--3--3--3--3--3-|
--5--5--5--5--5--5--5--5--5--5--5--5----1--1--1--1--1--1--1--1--1--1--1--1-|

-------------------------------------|
-------------------------------------|
-------------------------------------|
--7--7--7--7--7--7--7--7--7--7--7--7-|
--5--5--5--5--5--5--5--5--5--5--5--5-|
-------------------------------------|

------------------------------------------------------------------|
------------------------------------------------------------------|
------------------------------------------------------------------|
--5--5--5--5--5--5--5--5--5--5--5--5------------------------------|
--3--3--3--3--3--3--3--3--3--3--3--3----2--------------2--5--2--4-|
----------------------------------------0-----0--3--5-------------|

---------------------------------------------------------------------------------|
---------------------------------------------------------------------------------|
-------------------------------2-----------------------------------------------7-|
-------------------------------2--------------------------------------------7--5-|
--2--------------2--5--2--4----0-----0--0--0----3--3--3-----4--4--4------5--5----|
--0-----0--3--5------------------------------------------------------------------|

verse
-------------------------------------------------------------------------------|
-------------------------------------------------------------------------------|
-------------------------------------------------------------------------------|
--7--------9-----7--9----8----10----8--10--------------------------------------|
--5--------5-----5--5----6----6-----6--6-----3------5---3--5--3------5----3--5-|
---------------------------------------------1------1---1--1--1------1----1--1-|

-----------------------------------------------------------------------------|
-----------------------------------------------------------------------------|
-----------------------------------------------------------------------------|
--7--------9-----7--9----8--------10-----8--10----10--7---------10--7--------|
--5--------5-----5--5----6--------6------6--6------------10--8---------10--8-|
-----------------------------------------------------------------------------|

chorus
---------------------------------------------------------|
---------------------------------------------------------|
---------------------------------------------------------|
--2--------------2--5--2--4----2--------------2--5--2--4-|
--0-----0--3--5----------------0-----0--3--5-------------|
---------------------------------------------------------|

---------------------------------------------------------|
---------------------------------------------------------|
---------------------------------------------------------|
--2--------------2--5--2--4----2--------------2--5--2--4-|
--0-----0--3--5----------------0-----0--3--5-------------|
---------------------------------------------------------|
[ Tab from: http://www.guitartabs.cc/tabs/m/motley_crue/white_punks_on_dope_tab.html ]
-----------------------------------------------------------------------|
-----------------------------------------------------------------------|
--------------------------------------------------------------7------5-|
--2--------------2--5--2--4-----4-----4-----4-----4-----4-----7------5-|
--0-----0--3--5-----------------4-----4-----4-----4-----4-----5------3-|
--------------------------------2-----2-----2-----2-----2--------------|

---------------------------------------------------------------------------|
---------------------------------------------------------------------------|
---------------------------------------------------------------------------|
---------------------------------------------------------------------------|
--7--7--7--7--7--7--7--7--7--7--7--7----3--3--3--3--3--3--3--3--3--3--3--3-|
--5--5--5--5--5--5--5--5--5--5--5--5----1--1--1--1--1--1--1--1--1--1--1--1-|

---------------------------------------------------------------------------|
---------------------------------------------------------------------------|
---------------------------------------------------------------------------|
--7--7--7--7--7--7--7--7--7--7--7--7----5--5--5--5--5--5--5--5--5--5--5--5-|
--5--5--5--5--5--5--5--5--5--5--5--5----3--3--3--3--3--3--3--3--3--3--3--3-|
---------------------------------------------------------------------------|

solo
-------------------------------------------------------------------|
--9----8----6---8----9----11--------9----8----6---8----9----11-----|
--11b--10b--8b--10b--11b------9-----11b--10b--8b--10b--11b---------|
----------------------------------------------------------------10-|
-------------------------------------------------------------------|
-------------------------------------------------------------------|

--12---12-------13---13--------15---15--|
--15b--15b------16b--16b-------18b--18b-|
----------------------------------------|
----------------------------------------|
----------------------------------------|
----------------------------------------|

---------------------------------------------------------------|
---------------------------------------------------------------|
------------------------------------------------------------7--|
--------------------------------------------------------7--5---|
-----------------0--0--0-----3--3--3-----4--4--4-----5--5------|
---------------------------------------------------------------|

verse
-------------------------------------------------------------------|
-------------------------------------------------------------------|
-------------------------------------------------------------------|
--7--7--------8--8-------------------------------------------------|
--5--5--------6--6----------3--------5----3--5----3-----5-----3--5-|
----------------------------1--------1----1--1----1-----1-----1--1-|

--------------------------------------------------------------------------|
--------------------------------------------------------------------------|
--------------------------------------------------------------------------|
--7--------9-----7--9----8--10-----8--10----------------------------------|
--5--------5-----5--5----6--6------6--6----3-----3--3--3--3--3--3---------|
-------------------------------------------1-----1--1--1--1--1--1---------|
--------------------------------------------------------------------------|
--------------------------------------------------------------------------|
--------------------------------------------------------------------------|
---------------------------------7------9-----7--9----8-----10-----8--10--|
--3--------3--3--3--3--3--3------5------5-----5--5----6------6-----6---6--|
--1--------1--1--1--1--1--1-----------------------------------------------|

----------------------------------------------------------------------|
----------------------------------------------------------------------|
----------------------------------------------------------------------|
-----------------------------------------------7--------9-----7--9----|
--3-------5-----3--5----3--------5-----3--5----5--------5-----5--5----|
--1-------1-----1--1----1--------1-----1--1---------------------------|

---------------------------------------------------|
---------------------------------------------------|
---------------------------------------------------|
--8--------10-----8--10----10--7---------10--7-----|
--6--------6------6--6------------10--8---------10-|
---------------------------------------------------|

chorus
----------------------------------------------------------------------------------|
----------------------------------------------------------------------------------|
----------------------------------------------------------------------------------|
--2-------------2--5--2--4----2-------------2--5--2--4----2------------2--5--2--4-|
--0----0--3--5----------------0----0--3--5----------------0----0--3--5------------|
----------------------------------------------------------------------------------|

---------------------------------------------------------|
---------------------------------------------------------|
---------------------------------------------------------|
--2--------------2--5--2--4----2--------------2--5--2--4-|
--0-----0--3--5----------------0-----0--3--5-------------|
---------------------------------------------------------|

-------------------------------------------|
-------------------------------------------|
-------------------------------7---------5-|
--4-----4-----4-----4-----4----7---------5-|
--4-----4-----4-----4-----4----5---------3-|
--2-----2-----2-----2-----2----------------|

---------------------------------------------------------------------------|
---------------------------------------------------------------------------|
---------------------------------------------------------------------------|
---------------------------------------------------------------------------|
--7--7--7--7--7--7--7--7--7--7--7--7----3--3--3--3--3--3--3--3--3--3--3--3-|
--5--5--5--5--5--5--5--5--5--5--5--5----1--1--1--1--1--1--1--1--1--1--1--1-|

---------------------------------------------------------------------------|
---------------------------------------------------------------------------|
---------------------------------------------------------------------------|
--5--5--5--5--5--5--5--5--5--5--5--5---------------------------------------|
--3--3--3--3--3--3--3--3--3--3--3--3----7--7--7--7--7--7--7--7--7--7--7--7-|
----------------------------------------5--5--5--5--5--5--5--5--5--5--5--5-|

---------------------------------------------------------------------------|
---------------------------------------------------------------------------|
---------------------------------------------------------------------------|
----------------------------------------7--7--7--7--7--7--7--7--7--7--7--7-|
--3--3--3--3--3--3--3--3--3--3--3--3----5--5--5--5--5--5--5--5--5--5--5--5-|
--1--1--1--1--1--1--1--1--1--1--1--1---------------------------------------|

-------------------------------------|
-------------------------------------|
-------------------------------------|
--5--5--5--5--5--5--5--5--5--5--5--5-|
--3--3--3--3--3--3--3--3--3--3--3--3-|
-------------------------------------|

---------------------------------------------------------------------------|
---------------------------------------------------------------------------|
---------------------------------------------------------------------------|
---------------------------------------------------------------------------|
--7--7--7--7--7--7--7--7--7--7--7--7----3--3--3--3--3--3--3--3--3--3--3--3-|
--5--5--5--5--5--5--5--5--5--5--5--5----1--1--1--1--1--1--1--1--1--1--1--1-|

----------------------------------------------------------------------------|
----------------------------------------------------------------------------|
----------------------------------------------------------------------------|
--7--7--7--7--7--7--7--7--7--7--7--7----5--5--5--5--5--5--5--5--5--5--5--5--|
--5--5--5--5--5--5--5--5--5--5--5--5----3--3--3--3--3--3--3--3--3--3--3--3--|
----------------------------------------------------------------------------|
----------------------------------------------------------------------------|
----------------------------------------------------------------------------|
----------------------------------------------------------------------------|
----------------------------------------------------------------------------|
--7--7--7--7--7--7--7--7--7--7--7--7----------------------------------------|
--5--5--5--5--5--5--5--5--5--5--5--5----------------------------------------|

---------------------------------------------------------------------------|
---------------------------------------------------------------------------|
---------------------------------------------------------------------------|
----------------------------------------7--7--7--7--7--7--7--7--7--7--7--7-|
--3--3--3--3--3--3--3--3--3--3--3--3----5--5--5--5--5--5--5--5--5--5--5--5-|
--1--1--1--1--1--1--1--1--1--1--1--1---------------------------------------|

----------------------------------------16---16---16---16-/-|
----------------------------------------19b--19b--19b--19b--|
------------------------------------------------------------|
--5--5--5--5--5--5--5--5--5--5--5--5------------------------|
--3--3--3--3--3--3--3--3--3--3--3--3------------------------|
------------------------------------------------------------|
Comments