Motley Crue - Use It Or Lose It Chords & Tabs

 

Use It Or Lose It Chords & Tabs

Motley Crue Chords & Tabs

Version: 1 Type: Tab 0 ratings
1 star 2 stars 3 stars 4 stars 5 stars
comments

Use It Or Lose It Tab

   
-------------------------------------------------------------------------------
			    Use it or Lose it - Motley Crue
-------------------------------------------------------------------------------
Tabbed by: Teran Wyer
Email:aggro_skater22@hotmail.com

Tuning:DGCFAD (1 whole step down on each string)

0:00
|-----------------------------------------------------------------------------|
|-----------------------------------------------------------------------------|
|-----------------------------------------------------------------------------|
|-------2--5-4h5p4--2--4-5p4-0---2-5-4h5p4-2-5p4h5-7--------------------------|
|--7/0-2----------------2----------------2------------------------------------|
|--7/0-0----------------0----------------0------------------------------------|

0:17
|-----------------------------------------------------------------------------|
|-----------------------------------------------------------------------------|
|-----------------------------------------------------------------------------|
|--2--2--2------------2--2--2---------2--4-5p4-0--2---------------------------|
|--2--2--2------------2--2--2---------2---------------2-----------------------|
|---0--0--0-----------0--0--0---------0---------------0-----------------------|

Ragtime fast lane another overdose...

0:26
|--------------------------------------------------------------------------|
|--------------------------------------------------------------------------|
|--------------------------------------------------------------------------|
|-7p5--------------7-7p5----------------7-7p5------------------7-7p5-10-9--|
|-7p5--------------7-7p5----------------7-7p5------------------7-7p5-10-9--|
|-------0-0-0-0-0----------0-0-0-0-0-0---------0-0-0-0-0-0------ --0-------|
Use it or lose it
Sweet pain is the name of the game....

0:30
|-----------------------------------------------------------------------------|
|-----------------------------------------------------------------------------|
|-----------------------------------------------------------------------------|
|--9-9-9-9-9---7-7-7-7-7-7--5-5--4-4------------------------------------------|
|--9-9-9-9-9---7-7-7-7-7-7--5-5--4-4------------------------------------------|
|--5-5-5-5-5---5-5-5-5-5-5--3-3--3-3------------------------------------------|I
0:36
|-----------------------------------------------------------------------------|
|-----------------------------------------------------------------------------|
|-----------------------------------------------------------------------------|
|---2--5-4h5p4--2--4-5p4-0---2-5-4h5p4-2-5p4h5-7------------------------------|
|---2----------------2----------------2---------------------------------------|
|---0----------------0----------------0---------------------------------------|
0:44
|-----------------------------------------------------------------------------|
|-----------------------------------------------------------------------------|
|--2-5-4h5p4--2--4-5p4-0---2-5-4h5p4-2-5p4h5-7--------------------------------|
|--2---------------2---------------2------------------------------------------|
|--0---------------0---------------0------------------------------------------|
|-----------------------------------------------------------------------------|
Solo (sorry, don't have a whammy bar, so the first bit isn't tabbed)
 1:36
|----------------------------------------------------------------------------------|
|-12--15--17-17-17-17-17--18 20--17-17-17-17-17--18 20-----------------------------|
|----------------------------------------------------------------------------------|
|----------------------------------------------------------------------------------|
|----------------------------------------------------------------------------------|
|----------------------------------------------------------------------------------|

[ Tab from: http://www.guitartabs.cc/tabs/m/motley_crue/use_it_or_lose_it_tab.html ]
|-----------------------------------------------------------------------------|
|----17h18h20---17h18h20----17h18h20---17h18h20-------------------------------|
|-----------------------------------------------------------------------------|
|-----------------------------------------------------------------------------|
|-----------------------------------------------------------------------------|
|-----------------------------------------------------------------------------|

|-----------------------------------------------------------------------------|
|--12-12-12-12-12 13---15----12-12-12-12-12-13---15---------------------------|
|-----------------------------------------------------------------------------|
|-----------------------------------------------------------------------------|
|-----------------------------------------------------------------------------|
|-----------------------------------------------------------------------------|

|-----------------------------------------------------------------------------|
|---13--12--10--12--10-----10-------------------------------------------------|
|-----------------------------12-----12--11--12--11--9------------------------|
|-----------------------------------------------------------------------------|
|-----------------------------------------------------------------------------|
|-----------------------------------------------------------------------------|

|----------------------------------------------------------------------------------|
|---17-17-17-17-17--18 20--17-17-17-17-17--18 20-----------------------------------|
|----------------------------------------------------------------------------------|
|----------------------------------------------------------------------------------|
|----------------------------------------------------------------------------------|
|----------------------------------------------------------------------------------|

|------------------------------15h17h18--17h18h20---17h18h20--18h20h22--|
|-17h18h20--18h20h22----------------------------------------------------|
|-----------------------------------------------------------------------|
|-----------------------------------------------------------------------|
|-----------------------------------------------------------------------|
|-----------------------------------------------------------------------|


|-----------------------------------------------------------------------------|
|--12-12-12-12-12-13---15----12-12-12-12-12-13---15---------------------------|
|-----------------------------------------------------------------------------|
|-----------------------------------------------------------------------------|
|-----------------------------------------------------------------------------|
|-----------------------------------------------------------------------------|

|-----------------------------------------------------------------------------|
|--12-13-10-12----10----------------------------------------------------------|
|-------------------12----11-12-9-11--5-7-4-4-4-4-4-4-4-4-4-------------------|
|-----------------------------------------------------------------------------|
|-----------------------------------------------------------------------------|
|-----------------------------------------------------------------------------|

2:20
|-----------------------------------------------------------------------------|
|-----------------------------------------------------------------------------|
|--4h5-------4h5-------4h5----------------------------------------------------|
|-----------------------------------------------------------------------------|
|-----------------------------------------------------------------------------|
|-----------------------------------------------------------------------------|
lead bit over the main riff at the end

2:31
|-----------------------------------------------------------------------------|
|-----------------------------------------------------------------------------|
|-----------------------------------------------------------------------------|
|--2--4-5p4--0--2-------------------------------------------------------------|
|--2----------------2---------------------------------------------------------|
|--0----------------0---------------------------------------------------------|

Rock On!!  Crue Rule!!!


| /  slide up
| \  slide down
| h  hammer-on
| p  pull-off
| ~  vibrato
| +  harmonic
| x  Mute note
===============================================================================
Comments