Motley Crue - Too Young To Fall In Love Chords & Tabs

 

Too Young To Fall In Love Chords & Tabs

Motley Crue Chords & Tabs

Version: 1 Type: Bass Tab 0 ratings
1 star 2 stars 3 stars 4 stars 5 stars
comments

Too Young To Fall In Love Bass Tab

   
Band- Motley Crue
Song- Too Young To Fall In Love

Tuning: Standard (E A D G)



Intro/Chorus(for intro come after guitar played riff 1 time)
            (for chorus first time play only one 536p5 then on part 2 of chorus play twice)

G|------------------------------------------||
D|------------------------------------------||
A|------------------6-6-6-6--536p5-536p5----||
E|-3-3-3-3--1-1-1-1-------------------------||
[ Tab from: http://www.guitartabs.cc/tabs/m/motley_crue/too_young_to_fall_in_love_btab.html ]
Verse part 1 (x2)     Verse part 2
G|------------------|-----------------------||
D|------------------|-----------------------||
A|---------6-6-6-6h8|5-56-65-5-56-65656567--||
E|-3-3-3-3----------|-----------------------||

Bridge part 1 (x4)   Bridge part 2 (4x)
G|------------------|--------------||
D|------------------|--------------||
A|-5-5-5-5-3-3-3-3h6|--------------||
E|------------------|-3-3-3-3------||

then verse
then chorus(except only play 536p5 once very time)
Comments