Motley Crue - Too Fast For Love Chords & Tabs

 

Too Fast For Love Chords & Tabs

Motley Crue Chords & Tabs

Version: 4 Type: Bass Tab 0 ratings
1 star 2 stars 3 stars 4 stars 5 stars
comments

Too Fast For Love Bass Tab

   
Tabbed By : Unregistered
e-mail:
I think this is mostly accurate. It sure works with the song so it's a good one. Hope 
like it!This song is great.

Tuning:Regular
Guitar does some stuff first. You can actually follow it on the bass like this:
G|----1---2----3---4---4-5-4-5-------1---2---3---4---4-5-4-5--|
D|--3---3---3----3---3------------3----3---3---3---3----------|
A|------------------------------------------------------------|
E|------------------------------------------------------------|

G|----------------------------------------------------------|
D|---1----2---3---4---4-5-4-5------1---2---3---4---4-5-4-5--|
A|-3---3----3---3---3------------3---3---3---3---3----------|
E|----------------------------------------------------------|
Now Nikki actually comes in on the bass:
G|----------------------------------------------------------------|
D|----------------------------------------------------------------|
A|----1----2----3----4---4-5-4-5------1----2----3----4---4-5-4-5--|
E|-3-----3---3----3----3-----------3-----3----3----3---3----------|
Then Nikki and Mick drop lower. So you could tune your bass down a step. But when I play 
I just leave it to Nikki and Mick so I just drop out there. I think they only do that 
once in the song,but they play that part twice. Then heres the verse part
G|-----------------------------------------------------------------|
D|-0-0-0-0-0-0-0-0-0-0-0-0-----------------------------------------|
A|-----------------------------------------------------------------|
E|---------------------------2-2-2-2-2-2-2-2-2-2-2-2--3-3-3-3-3-3--|
[ Tab from: http://www.guitartabs.cc/tabs/m/motley_crue/too_fast_for_love_btab_ver_4.html ]
G|----------------------------------------------------------------------------|
D|-0-0-0-0-0-0-0-0------------------------------------------------------------|
A|----------------------1---2---3---4---4-5-4-5-----1----2---3---4---4-5-4-5--|
E|--------------------3---3---3---3---3-----------3----3---3---3---3----------|
You play those parts for as many times as Nikki does.
Then the Chorus goes like this (and its pretty fast):
G|-------------------------------------------------------------------|
D|-------------------------------------------------------------------|
A|-0-0-0-0-0-0-0-0-0-0-0-0-0-0-0-0-----------------------------------|
E|----------------------------------3-3-3-3-3-3-3-3-3-3-3-3-3-3-3-4--|

G|-------------------------------------|
D|-------------------------------------|
A|-0-0-0-0-0-0-0-0-0-0-0-0-0-0-0-0-----|
E|----------------------------------3--|
Then there is a solo it goes like something like this:
G|---2----3---4-----5----6-----7-8----------------------------------------------------|
D|-3---4----5----6----7-----8---------------------------------------------------------|
A|------------------------------------------------------------------------------------|
E|------------------------------------0-3-4-------------------------------------------|

G|-------------------------------------|
D|-------------------------------------|
A|-0-0-0-0-0-0-0-0-0-0-0-0-0-0-0-0-----|
E|----------------------------------3--|
Tommy does a fill and then you do that again then Mick does a fill and then you play the 
for the rest of the song I think. Rock out.Oh and by the way they might play them a 
of extra times in the verses I kind of messed up.It's good though.
Comments