Motley Crue - Too Fast For Love Chords & Tabs

 

Too Fast For Love Chords & Tabs

Motley Crue Chords & Tabs

Version: 3 Type: Bass Tab 0 ratings
1 star 2 stars 3 stars 4 stars 5 stars
comments

Too Fast For Love Bass Tab

Motley Crue
Too Fast For Love
Tabbed by: Rocklvson

Intro
          x2                         x2
G:--------------5---6h7-6h7-|-------------------------|
D:5-7-5-8-5-9-5---5---------|--------------5---6h7-6h7|           
A:--------------------------|5-7-5-8-5-9-5---5--------|
E:--------------------------|-------------------------|
[ Tab from: http://www.guitartabs.cc/tabs/m/motley_crue/too_fast_for_love_btab_ver_3.html ]
Verse  
         x5          x2        x2          x2
G:--------------|---------|---------|--------------|
D:--------------|---------|---------|--------------|
A:--------------|---------|---------|--------------|
E:10-10-10-10-10|2-2-2-2-2|3-3-3-3-3|10-10-10-10-10|

Chorus
G:---------------------------------|----------------|
D:---------------------------------|----------------|
A:-------------5 x16 -3-2-0--------|----------5x16-3|
E:5x16-3x16--------------4-3-2-0---|5x16-3x16-------|

Solo
Just a riff that descends upward from E:5 every two riffs

Simple as that!Any questions or comments e-mail me at rocklvson@yahoo.com
Please Rate!
Comments