Motley Crue - Tonight We Need A Lover Chords & Tabs

 

Tonight We Need A Lover Chords & Tabs

Motley Crue Chords & Tabs

Version: 1 Type: Tab 0 ratings
1 star 2 stars 3 stars 4 stars 5 stars
comments

Tonight We Need A Lover Tab

   
Tonight
motley crue

A little iffy on the chord positions, but the chords are correct!
 - G#, A/B, F#/A#, F#/B# -

intro- x4

  E     B/D#  C#m  emaj7/b  A  Asus2
e--4----2-2----0----4-4-----0---0-|
b--0----0-0----5----4-4-----2---0-|
g--4----4-4----6----4-4-----2---2-|
d--2----1-1----6----2-2-----2---2-|
a--------------4----2-2-----0---0-|
e---------------------------------|

verse

"when you smiled at me and i saw your eyes"

  E       B/D#    C#m        b     A
e--4------2-------0----------------0--------|
b----0-----0--------5--------4-------2------|
g-----4------4--------6-------4--------2----|
d------2-------1--------6------4---------2--|
a-------------------------4-----2---------0-|
e-------------------------------------------|

"all i ever wanted to be, was in your arms tonight"

   G#    F#      A   A/B    E  A  E
e----------------0----------4--0--4-|
b----------------2----------0--2--0-|
g----------------2----------4--2--4-|
d----------------2----------2--2--2-|
a----------------0-------------0----|
e-----------------------------------|

"you looked to young to know about romance"

  G#            C#m      b   A    b    E  A  E
e----------------0-----------0---------4--0--4-|
b----------------5-------4---2----4----0--2--0-|
g----------------6-------4---2----4----4--2--4-|
d----------------6-------4---2----4----2--2--2-|
a----------------4-------2---0----2-------0----|
e----------------------------------------------|
[ Tab from: http://www.guitartabs.cc/tabs/m/motley_crue/tonight_we_need_a_lover_tab.html ]
"but you smiled i had to take a chance"
 G#      C#m     F#/A#     b   G#/B# C#m  E7/D
e---------0---------------------------0-------|
b---------5----------------4----------5-------|
g---------6----------------4----------6-------|
d---------6----------------4----------6-------|
a---------4----------------2----------4-------|
e---------------------------------------------|

chorus
"tonight,ill be with you tonight

   A      b      E  A  E
e--0-------------4--0--4-|
b--2------4------0--2--0-|
g--2------4------4--2--4-|
d--2------4------2--2--2-|
a--0------2---------0----|
e------------------------|

"tonight,ill love you through the night"

   A     b         E   A
e--0---------------4---0-|
b--2-----4---------0---2-|
g--2-----4---------4---2-|
d--2-----4---------2---2-|
a--0-----2-------------0-|
e------------------------|


C#m    F#
Whoa, baby
	[1:   to bridge]
	[2,3: Bsus4  b]
	    Tonight

bridge

b                              A      b
Tonight  I'll make ...
	                              A      b
	Bop-um-doo-dom-om-mop...
	                              A
	You're gonna ....
	         b
	Well, ....

	(4-bar guitar solo over B chord)

	E       Esus4
	/ / / /   / / / /

[repeat chorus]

Verse 2:

	I don't know ....

[repeat chorus]

coda
         E     B/D#             C#m            emaj7/b  A  Asus2
well tonight Won't you let me ...
well tonight I just want to ...
well tonight Let me feel the ...
well tonight Come on, come on, ....
         E [N.C.]
well tonight
Comments