Motley Crue - Toast Of The Town Chords & Tabs

 

Toast Of The Town Chords & Tabs

Motley Crue Chords & Tabs

Version: 2 Type: Bass Tab

Toast Of The Town Bass Tab

Intro :03        x2                 x2 
G|-----------------|------------------|
D|------32------32-|-------------3--2-|
A|-----------------|------------------|
E|0123~---0123~----|-0123-3-0-13~-----|

Verse :17         x3           
G|------------------|------------------|
D|------------------|------------------|
A|------------5-5-5-|------------------|
E|-0123-3-3-3-------|-0000000000000000-|

Pre-Chorus :31      x2                           x2
G|--------------------|----------------------------|
D|--------------------|----------------------------|
A|-33-2-0---5-5555555-|-33-2-0----3333333333333333-|
E|--------3-----------|--------3-------------------|

Chorus 1 :43                     
G|-----------------------------------|
D|-----------------------------------|
A|-----5-3-3-333-7-7--0-3-5-5--5-7-5-|
E|-3-3-------------------------------|

Chorus 2 :50
G|----------------------------|
D|----------------------------|
A|-----5-3-3-333-7-7--0-3-5-5-|
E|-3-3------------------------|
[ Tab from: http://www.guitartabs.cc/tabs/m/motley_crue/toast_of_the_town_btab_ver_2.html ]
Post-Chorus :57
G|----------------------------|
D|--------32------------------|
A|------------------------14/-|
E|-0123~-----0123-3-0-13~-----|

Verse 1:03
Pre-Chorus 1:17
Chorus 1 x2 1:29
                      
Bridge 1:42              x2                       x4
G|-------------------------|------7-----5---4-------|
D|-------------------------|-0000---000--00---00-57-|
A|---11-----------11----33-|------------------------|
E|33----33-----33----33----|------------------------|

Pre-Solo 2:06
G|-----------------------------------|
D|-------6-7-9-7-6--------8-9-11-9-8-|
A|-7-7-9-----------9-9-11------------|
E|-----------------------------------|

Solo 2:09
G|------------------------------7-9-7-------------------------------------|
D|--------------------------7-9-------9-----------------------------------|
A|-----5-3-3-333-7-7--0-3-5------------------5-3-3-333-7-7-0-3-5-5--5-7-5-|
E|-3-3-----------------------------------3-3------------------------------|

Interlude 2:43       x4
G|---------------------|
D|---------------------|
A|---------------------|
E|-3~---3~---3~---3~---|

Chorus 1 x3 2:57
Chorus 2 3:17

Outro 3:23
G|------------------|
D|-------32---------|
A|------------------|
E|-0123~-----0123~--|