Motley Crue - Tnt Chords & Tabs

 

Tnt Chords & Tabs

Motley Crue Chords & Tabs

Version: 1 Type: Tab 0 ratings
1 star 2 stars 3 stars 4 stars 5 stars
comments

Tnt Tab

Band- Motley Crue
Song- TNT

D tuning- DGCFAD

/-slide
x-palm mute

Gtr 2
d---------------------------------|
g---------------------------------|
c--0--------------------2---------|
f--0--------------------2------2--|
a--x--------------------0------2--|
d--3---------------------------0--|
[ Tab from: http://www.guitartabs.cc/tabs/m/motley_crue/tnt_tab.html ]
Gtr 1
d-15/18-18-18-15-15-15-12-12-12-----------------------------------------|
g-------------------------------14-14-14-11-11-11-----------------------|
c--------------------------------------------------12-12-12-9-9-9-6-6-6-|
f-----------------------------------------------------------------------|
a-----------------------------------------------------------------------|
d-----------------------------------------------------------------------|

                                    w/bar bend down slow then come up slow
d--------------------------------------------||--|
g--------------------------------------------/---|
c--------------------------------------------9---|
f--8-8-8-5-5-5-------------------------------9---|
a--------------9-9-9-4-4-4-------------------7---|
d---------------------------6-6-6-3-3-3-0----0---|

Gtr 2                            play on the last open d of gtr 1
d---------------------------------------------|
g---------------------------------------------|
c---------------------------------------9-----|
f---------------------------------------9-----|
a---------------------------------------7-----|
d---------------------------------------------|
Comments