Motley Crue - Ten Seconds To Love Chords & Tabs

 

Ten Seconds To Love Chords & Tabs

Motley Crue Chords & Tabs

Version: 1 Type: Bass Tab 0 ratings
1 star 2 stars 3 stars 4 stars 5 stars
comments

Ten Seconds To Love Bass Tab

Band- Motley Crue
Song- Ten Seconds To Love

riff 1
C-----------------------|
D-----------------------|
A-------3---------------|
E-0-3-5---5-3-5--5--5-5-|

chorus
C-----------------------------------------------------------------------------------------|
D---------------------------------------------------------------------3--3---3------------|
A-------3-----------------------3----------------------3-----5--5---5---------------------|
E-0-3-5---5-3-5--5---5-5--0-3-5---5-3-3--3--3-3--0-3-5---5-3--------------------5--5--5-5-|

verse riff
C----------------------------------------------------------------------------|
D----------------------------------------------------------------------------|
A-------3-------------3-----3--------5--3---3------------3-----3--------5--3-|
E-0-3-5---5-3-5--5--5----------3----------------5-----5-----------3----------|
[ Tab from: http://www.guitartabs.cc/tabs/m/motley_crue/ten_seconds_to_love_btab.html ]
riff 2
C------------------------|
D------------------------|
A------3-----------------|
E0-3-5---5-3-5-555555555-|

riff 3
C--------------------------------------------------------------------------------------------------|
D-----------------------------------------------------------------333333333------------------------|
A-------3---------------------3---------------------3----555555553------------------------3--------|
E-0-3-5---5-3-55555555550-3-5---5-3-33333333330-3-5---5-3------------------5555555550-3-5---5-3-5--|


C------------------------------------------------------------------------|
D-----------------------------------------------------3-----3------------|
A----------------3---------------------3-----5-----5----------5-55555555-|
E-5555555550-3-5---5-3-33333333330-3-5---5-3-----------------------------|

Order:
riff 1(4x)(00:00)
chorus[intro](1x)(00:14)
verse riff(1x)(00:28)
chorus(2x)(00:43)
verse riff(1x)(01:11)
chorus(2x)(01:26)
riff 1(4x)(01:55)
chorus[guitar solo](2x)(02:10)
riff 2(6x)(02:38)
riff 3(1x)(03:01)
chorus(2x)(03:29)
riff 1(5x)(04:02)
Comments