Motley Crue - Sticky Sweet Chords & Tabs

 

Sticky Sweet Chords & Tabs

Motley Crue Chords & Tabs

Version: 1 Type: Tab 0 ratings
1 star 2 stars 3 stars 4 stars 5 stars
comments

Sticky Sweet Tab

Band- Motley Crue
Song- Sticky Sweet

D tuning- DGCFAD

h- hammer on
p- pull off
/- slide up
\- slide down
x- palm mute
\/- arm down
^- arm up
ph- pinch harmonic

intro
d-------------------------|
g-------------------------|
c----0---2-0----------2---|
f--2---2-----2------------|
a--------------0-3h4----0-|
d-------------------------|

d--------------------------3-3-|
g--------------------------3-3-|
c----0---2-0----------2----0-2-|
f--2---2-----2----------2--0-0-|
a--------------0-3h4-------x-x-|
d--------------------------3-2-|

d-------------------------|
g-------------------------|
c----0---2-0----------2---|
f--2---2-----2------------|
a--------------0-3h4----0-|
d-------------------------|

d------------------------------|
g----------------------------3-|
c----0---2-0----------2----0-2-|
f--2---2-----2----------2--0-0-|
a--------------0-3h4-------x---|
d--------------------------3---|

d-------------------------|
g-------------------------|
c----0---2-0----------2---|
f--2---2-----2------------|
a--------------0-3h4----0-|
d-------------------------|

d--------------------------------------------------------------|
g-------------------------------------------------------8-8-8--|
c-------------------------9-7--7-9--9-7--7-9--9-7--7-9--7-7-7--|
f--7-----7-----7-----7----9-7--7-9--9-7--7-9--9-7--7-9--x-x-x--|
a----4-4---5-5---6-6---7--------------------------------7-7-7--|
d--------------------------------------------------------------|

d------------------------------------|
g------------------------------------|
c--9-7--7-9--9-7--7-9--9-7--7-9--9-9-|
f--9-7--7-9--9-7--7-9--9-7--7-9--9-9-|
a------------------------------------|
d------------------------------------|

verse
                   ph
d----------------------------8p7-----------------------------------|
g----------------------------7p7-----------------------------------|
c------2--0--2-2--4-4--4-4p2-7p7-4p2---2-----2--0--2-2-------------|
f------2--0--2-2--------------------4--------2--0--2-2----7----7---|
a--x\--0--x--0-0-------------------------3---0--x--0-0--4---4----5-|
d---------3-------------------------------------3------------------|

              ph    ph
d------------------------------------------------3-3-|
g-------------20-\/------------------------------3-3-|
c--2--0--2-2--------4-4-4p2-4p2----2----2--0--2--0-2-|
f--2--0--2-2--------------------4-------2--0--2--0-0-|
a--0--x--0-0-------------------------3--0--x--0--x-x-|
d-----3------------------------------------3-----3-2-|
[ Tab from: http://www.guitartabs.cc/tabs/m/motley_crue/sticky_sweet_tab.html ]
chorus
d--------------------------------------------------------------------------|
g--------------------------------8-8-8-------------------------------------|
c--9-7--7-9--9-7--7-9--9-7--7-9--7-7-7--9-7--7-9--9-7--7-9--7-5--5--4--3-3-|
f--9-7--7-9--9-7--7-9--9-7--7-9--x-x-x--9-7--7-9--9-7--7-9--7-5--5--4--3-3-|
a--------------------------------7-7-7-------------------------------------|
d--------------------------------------------------------------------------|

intro again
d-------------------------|
g-------------------------|
c----0---2-0----------2---|
f--2---2-----2------------|
a--------------0-3h4----0-|
d-------------------------|

d--------------------------3-3-|
g--------------------------3-3-|
c----0---2-0----------2----0-2-|
f--2---2-----2----------2--0-0-|
a--------------0-3h4-------x-x-|
d--------------------------3-2-|

d-------------------------|
g-------------------------|
c----0---2-0----------2---|
f--2---2-----2------------|
a--------------0-3h4----0-|
d-------------------------|

d------------------------------|
g----------------------------3-|
c----0---2-0----------2----0-2-|
f--2---2-----2----------2--0-0-|
a--------------0-3h4-------x---|
d--------------------------3---|

verse
                   ph
d----------------------------8p7-----------------------------------|
g----------------------------7p7-----------------------------------|
c------2--0--2-2--4-4--4-4p2-7p7-4p2---2-----2--0--2-2-------------|
f------2--0--2-2--------------------4--------2--0--2-2----7----7---|
a--x\--0--x--0-0-------------------------3---0--x--0-0--4---4----5-|
d---------3-------------------------------------3------------------|

              ph    ph
d------------------------------------------------3-3-|
g-------------20-\/------------------------------3-3-|
c--2--0--2-2--------4-4-4p2-4p2----2----2--0--2--0-2-|
f--2--0--2-2--------------------4-------2--0--2--0-0-|
a--0--x--0-0-------------------------3--0--x--0--x-x-|
d-----3------------------------------------3-----3-2-|

chorus
d--------------------------------------------------------------------------|
g--------------------------------8-8-8-------------------------------------|
c--9-7--7-9--9-7--7-9--9-7--7-9--7-7-7--9-7--7-9--9-7--7-9--7-5--5--4--3-3-|
f--9-7--7-9--9-7--7-9--9-7--7-9--x-x-x--9-7--7-9--9-7--7-9--7-5--5--4--3-3-|
a--------------------------------7-7-7-------------------------------------|
d--------------------------------------------------------------------------|

intro again
d-------------------------|
g-------------------------|
c----0---2-0----------2---|
f--2---2-----2------------|
a--------------0-3h4----0-|
d-------------------------|

d--------------------------3-3-|
g--------------------------3-3-|
c----0---2-0----------2----0-2-|
f--2---2-----2----------2--0-0-|
a--------------0-3h4-------x-x-|
d--------------------------3-2-|

d-------------------------|
g-------------------------|
c----0---2-0----------2---|
f--2---2-----2------------|
a--------------0-3h4----0-|
d-------------------------|

d------------------------------|
g----------------------------3-|
c----0---2-0----------2----0-2-|
f--2---2-----2----------2--0-0-|
a--------------0-3h4-------x---|
d--------------------------3---|

SOLO-
Comments