Motley Crue - Stick To Your Guns Chords & Tabs

 

Stick To Your Guns Chords & Tabs

Motley Crue Chords & Tabs

Version: 1 Type: Tab 0 ratings
1 star 2 stars 3 stars 4 stars 5 stars
comments

Stick To Your Guns Tab

   
Stick To Your Guns
motley crue

PM- palm mute
b- bend
p - pull off
h- hammer on
r- release
/- slide down
\- slide up

I think this is pretty much right.

intro
|-------------------------------------------------------------|
|-------------------------------------------------------------|
|-------------------------------------------------------------|
|-------------------------------------------------------------|
|-----5--4--5-----5--5-4-4-5---------5--4--5-----5--5-4-4-5---|
|--0----------2--------------0--2------------2--------------0-|

|-------------------------------------------|
|-------------------------------------------|
|-------------------------------------------|
|-------------------------------------------|
|----5--4--5-----5--5-4-4-5-------5--4--5---|
|-2----------2--------------0--2----------2-|

|----------------------------------------------------------|
|----------------------------------------------------------|
|----------------------------------------------------------|
|----------------------------------------------------------|
|----5--4--5-----5--5-4-4-5-------5--4--5-----5--5-4-4-5---|
|-0----------2--------------0--2----------2--------------0-|

                                <-palm muted->
|-------------------------------------------------------------------|
|-------------------------------------------------------------------|
|-------------------------------------------------------------------|
|--------------------------------------7--8--9----9-----9-----------|
|----5--4--5-----5--5-4-4-5-------5----5--6--7--7-7-7-7-7-7-7-7-7-7-|
|-2----------2--------------0--2------------------------------------|

                      PM   PM   PM
|-----------------------------------------|
|-----------------------------------------|
|-----------------------------------------|
|-9------9\---7-8--9----9-----9-----------|
|-7-7-7--7\---5-6--7--7-7-7-7-7-7-7-7-7-7-|
|-----------------------------------------|

     PM               PM  PM    PM
|--------------------------------------------------------|
|--------------------------------------------------------|
|--------------------------------------------------------|
|-9------9\---7-8--9----9-----9------------9-----9--7--9-|
|-7--7-7-7\---5-6--7--7-7-7-7-7-7-7-7-7-7--7-7-7-7--5--7-|
|--------------------------------------------------------|

           PM     PM                           PM      PM      PM
|------------------------------------------------------------------------|
|------------------------------------------------------------------------|
|------------------------------------------------------------------------|
|-7--7---7-----7------7--------7------7--7---7-----7-------7-------7-7-8-|
|-5--5---5-5-5-5--5-5-5----5-5-5------5--5---5-5-5-5--5-5--5---5-5-5-5-6-|
|--------------------------------2-3-------------------------------------|

    PM   PM    PM
|--------------------------------------|
|--------------------------------------|
|--------------------------------------|
|-9----9-----9------------9-----9-9\---|
|-7--7-7-7-7-7-7-7-7-7-7--7-7-7-7-7\---|
|--------------------------------------|

|---------------------------|
|---------------------------|
|-9-----8--9----------------|
|-9-----9--9-----7-------7--|
|-7-----7--7-----7-------7--|
|-7-----7--7-----5-------5--|

                        PM    PM    PM    PM
|-------------------------------------------------|
|-------------------------------------------------|
|-5--5--------------------------------------------|
|-5--5---------7----------------------------------|
|-3--3---------7------7-----7-----7-----7-----7\--|
|-3--3---------5------5-5-5-5-5-5-5-5-5-5-5-5-5\--|

|-----------------------------|
|-----------------------------|
|-----------------------------|
|-----------------------------|
|----5--4--5-------5--4-4-5---|
|-0----------2--------------0-|

|----------------------------------------------|
|----------------------------------------------|
|----------------------------------------------|
|----------------------------------------------|
|----5--4--5--------5--5-4-4-5-------5--4--5---|
|-2----------2-----------------0--2----------2-|

|-------------------------------------------------------------|
|-------------------------------------------------------------|
|-------------------------------------------------------------|
|-------------------------------------------------------------|
|--5--5-4-4-5-------5--4--5--------5--5-4-4-5-------5--4--5---|
|-------------0--2----------2-----------------0--2----------2-|

|----------------------------------------------------------|
|----------------------------------------------------------|
|----------------------------------------------------------|
|----------------------------------------------------------|
|--5--5-4-4-5-------5--4--5-----5--5-4-4-5-------5--4--5---|
|-------------0--2----------2--------------0--2----------2-|

|-----------------------------|
|-----------------------------|
|-----------------------------|
|-------------------------7-8-|
|--5--5-4-4-5-------5-----5-6-|
|-------------0--2------------|

     PM  PM    PM           PM               PM   PM     PM
|------------------------|----------------|------------------------|
|------------------------|----------------|------------------------|
|------------------------|----------------|------------------------|
|-9----9-----9-----------|-9-----9\---7-8-|-9----9-----9-----------|
|-7--7-7-7-7-7-7-7-7-7-7-|-7-7-7-7\---5-6-|-7--7-7-7-7-7-7-7-7-7-7-|
|------------------------|----------------|------------------------|

    PM               PM   PM      PM
|-------------------------------------------|
|-------------------------------------------|
|-------------------------------------------|
|-9-----9\---7-8--9----9-----9--------------|
|-7-7-7-7\---5-6--7--7-7-7-7-7-7-7-7-7-7----|
|-------------------------------------------|

                           PM   PM
|---------------------------------------------------|
|---------------------------------------------------|
|---------------------------------------------------|
|-9-----9--7--9--7--7---7-----7-------7-------7-----|
|-7-7-7-7--5--7--5--5---5-5-5-5-5-5---5---5-5-5-----|
|-----------------------------------------------2-3-|

           PM     PM     PM
|-----------------------------------|
|-----------------------------------|
|-----------------------------------|
|-7--7---7-----7------7-------7-7-8-|
|-5--5---5-5-5-5--5-5-5---5-5-5-5-6-|
|-----------------------------------|

          PM    PM           PM
|-------------------------------------|
|-------------------------------------|
|-------------------------------------|
|-9----9-----9-----------9------9-9\--|
|-7--7-7-7-7-7-7-7-7-7-7-7--7-7-7-7\--|
|-------------------------------------|

|------------------------------|
|------------------------------|
|-9--------8--9----------------|
|-9--------9--9-----7-------7--|
|-7--------7--7-----7-------7--|
|-7--------7--7-----5-------5--|
                      
                       PM    PM    PM    PM|
|------------------------------------------------|
|------------------------------------------------|
|-5------5---------------------------------------|
|-5------5-----7---------------------------------|
|-3------3-----7-----7-----7-----7------7-----7\-|
|-3------3-----5-----5-5-5-5-5-5-5-5--5-5-5-5-5\-|
[ Tab from: http://www.guitartabs.cc/tabs/m/motley_crue/stick_to_your_guns_tab.html ]
|----------------------------|
|----------------------------|
|----------------------------|
|----------------------------|
|----5--4--5----5--5-4-4-5---|
|-0----------2-------------0-|

|-------------------------------------------|
|-------------------------------------------|
|-------------------------------------------|
|-------------------------------------------|
|----5--4--5-----5--5-4-4-5-------5--4--5---|
|-2----------2--------------0--2----------2-|

|-----------------------------------------------------------|
|-----------------------------------------------------------|
|-----------------------------------------------------------|
|-----------------------------------------------------------|
|--5--5-4-4-5-------5--4--5------5--5-4-4-5-------5--4--5---|
|-------------0--2----------2---------------0--2----------2-|

|------------------------------------------------------------|
|------------------------------------------------------------|
|------------------------------------------------------------|
|------------------------------------------------------------|
|--5--5-4-4-5-------5--4--5-------5--5-4-4-5-------5--4--5---|
|-------------0--2----------2----------------0--2----------2-|

|----------------------------------------------------------|
|----------------------------------------------------------|
|------------/9--9--9-9-9-9\-----------/9--9--9--9-9-9-9\--|
|------------/9--9--9-9-9-9\-----------/9--9--9--9-9-9-9\--|
|------------/7--7--7-7-7-7\-----------/7--7--7--7-7-7-7\--|
|----------------------------------------------------------|

|--------------------------------------------------------------|
|--------------------------------------------------------------|
|-----------/9--9--9--9-9-9-9\-------------/9--9--9--9-9-9-9\--|
|-----------/9--9--9--9-9-9-9\-------------/9--9--9--9-9-9-9\--|
|-----------/7--7--7--7-7-7-7\-------------/7--7--7--7-7-7-7\--|
|--------------------------------------------------------------|


                                            PM  PM
|-14pb16r-------------------------------------------|
|---------------------------------------------------|
|-----------------7-9--9-10--10-12--12\-------------|
|-----------------7-9--9-10--10-12--12\-------------|
|-----------------5-7--7--8---8-10--10\-------------|
|--------------------------------------------0-0-0--|

                           PM
|--------------------------------|
|--------------------------------|
|-7-9--9-10--5-7--7\-------------|
|-7-9--9-10--5-7--7\-------------|
|-5-7--7--8--3-5--5\-------------|
|-------------------------0-0-0--|

|-11b13r11-9----9------------------------|
|------------11---11-11-9----9-----------|
|--------------------------10---10-12-10-|
|----------------------------------------|
|----------------------------------------|
|----------------------------------------|

|-----------------------------------------------|
|-----------------------------------------------|
|----10-----------------------------------------|
|-12----12-12-10----10--------------------------|
|----------------12----12-12-10----10-----------|
|-------------------------------12----11\-12-12-|

|----------------------------------------------|
|----------------------------------------------|
|----------------------------------------------|
|----------------------------------------7-7-7-|
|-7----9---5----9---7-7-7-9-9-9-10-10-10-------|
|----------------------------------------------|

|------------------------------------|
|------------------------------------|
|------------------------------------|
|-9-9-9-10-10-10-11-11-11-12-12-12\--|
|------------------------------------|
|------------------------------------|

  PM------------|         PM----|
|------------------------------------------|
|------------------------------------------|
|------------------------------------------|
|--------------------7--------------7--7-8-|
|-7-7-7-7-6-7-7-7-6--5---6-7-7-7-6--5--5-6-|
|------------------------------------------|

      PM----|         PM----|
|--------------------------------------|
|--------------------------------------|
|--------------------------------------|
|-9\-------------7--------------7--7-8-|
|-7\--6-7-7-7-6--5---6-7-7-7-6--5--5-6-|
|--------------------------------------|

      PM----|         PM----|
|--------------------------------------|
|--------------------------------------|
|--------------------------------------|
|-9\-------------7--------------7--7-8-|
|-7\--6-7-7-7-6--5---6-7-7-7-6--5--5-6-|
|--------------------------------------|

      PM----|         PM----|
|--------------------------------------|
|--------------------------------------|
|--------------------------------------|
|-9\-------------7--------------7--7-8-|
|-7\--6-7-7-7-6--5---6-7-7-7-6--5--5-6-|
|--------------------------------------|

|------------------------------------------------------------------|
|------------------------------------------------------------------|
|------------------------------------------------------------------|
|------------------------------------------------------------------|
|-7p6h7p6h7p6h7p6h7p6h7p6h7p6h7p6h-7p6h7p6h7p6h7p6h7p6h7p6h7p6h7p6-|
|------------------------------------------------------------------|

|-----------------------------|
|-----------------------------|
|-9------8-9------------------|
|-9------9-9------7--------7--|
|-7------7-7------7--------7--|
|-7------7-7------5--------5--|

                          PM   PM    PM     PM
|----------------------------------------------------|
|----------------------------------------------------|
|-5-----5--------------------------------------------|
|-5-----5--------7-----------------------------------|
|-3-----3--------7------7-----7-----7------7-----7\--|
|-3-----3--------5------5-5-5-5-5-5-5-5--5-5-5-5-5\--|

|-----------------------------------------------------------|
|-----------------------------------------------------------|
|-----------------------------------------------------------|
|-----------------------------------------------------------|
|----5--4--5-----5--5-4-4-5-------5--4--5------5--5-4-4-5---|
|-0----------2--------------0--2----------2---------------0-|

|-----------------------------------------------------------|
|-----------------------------------------------------------|
|-----------------------------------------------------------|
|-----------------------------------------------------------|
|----5--4--5-----5--5-4-4-5-------5--4--5------5--5-4-4-5---|
|-2----------2--------------0--2----------2---------------0-|

|---------------------------------------------------------|
|---------------------------------------------------------|
|---------------------------------------------------------|
|---------------------------------------------------------|
|----5--4--5-----5--5-4-4-5-------5--4--5-----5--5-4-4-5--|
|-2----------2--------------0--2----------2-------------0-|

|-------------------------------------------|
|-------------------------------------------|
|-------------------------------------------|
|--------------------------------------7--8-|
|----5--4--5-----5--5-4-4-5------5-----5--6-|
|-2----------2--------------0--2------------|

    PM   PM    PM           PM
|----------------------------------------------|
|----------------------------------------------|
|----------------------------------------------|
|-9----9-----9------------9-----9\---7-8---9\--|
|-7--7-7-7-7-7-7-7-7-7-7--7-7-7-7\---5-6---7\--|
|----------------------------------------------|
Comments