Motley Crue - Somethin For Nothin Chords & Tabs

 

Somethin For Nothin Chords & Tabs

Motley Crue Chords & Tabs

Version: 1 Type: Bass Tab 0 ratings
1 star 2 stars 3 stars 4 stars 5 stars
comments

Somethin For Nothin Bass Tab

Band- Motley Crue
Song- Somethin For Nothin

Intro:
G---9/10---|
D---9/10---|
A----------|
E----------|

  2x
G-----------------------|------------------------|
D---------7-9-10-9-7-9--|---------7-9-10-10-9-7--|
A-5-5--/9---------------|-5-5--/9----------------|
E-----------------------|------------------------|

Verse:
G----------------|-----------------------|
D----------------|-----------------------|
A---------5-7-8--|---------5-7-8-8-7-5-7-|
E-3-3--/7--------|-3-3--/7---------------|

G----------------|-----------------------|
D----------------|-----------------------|
A---------5-7-8--|---------5-7-8-8-7-5-7-|
E-3-3--/7--------|-3-3--/7---------------|

G-----------------------|-----------------------|
D---------7-9-10-9-7-9--|---------7-9-10-10-9-7-|
A-5-5--/9---------------|-5-5--/9---------------|
E-----------------------|-----------------------|

G----------------|-----------------------|
D----------------|-----------------------|
A---------5-7-8--|---------5-7-8-8-7-5-7-|
E-3-3--/7--------|-3-3--/7---------------|

G----------------|-----------------------|
D----------------|-----------------------|
A---------5-7-8--|---------5-7-8-8-7-5---|
E-3-3--/7--------|-3-3--/7------------7--|

G-----------------------|-----------------------|
D---------7-9-10-9-7-9--|---------7-9-10-10-9-7-|
A-5-5--/9---------------|-5-5--/9---------------|
E-----------------------|-----------------------|

Chorus:
G--------------|----------------------------------------------------|
D--------------|----------------------------------------------------|
A-------2-3----|-5-5-----------5-5-3-3-2------5-5--------------2-3--|
E-5-5-5--------|-----1-3-3-3-1----------5-3-2----1-3-3-3-3-5-5------|
Verse:
2x
G-----------------------|---------------------|
D---------7-9-10-9-7-9--|---------7-9-10-9-7--|
A-5-5--/9---------------|-5-5--/9-------------|
E-----------------------|---------------------|
[ Tab from: http://www.guitartabs.cc/tabs/m/motley_crue/somethin_for_nothin_btab.html ]
Verse:
G----------------|-----------------------|
D----------------|-----------------------|
A---------5-7-8--|---------5-7-8-8-7-5-7-|
E-3-3--/7--------|-3-3--/7---------------|

G----------------|-----------------------|
D----------------|-----------------------|
A---------5-7-8--|---------5-7-8-8-7-5---|
E-3-3--/7--------|-3-3--/7-------------7-|

G-----------------------|-----------------------|
D---------7-9-10-9-7-9--|---------7-9-10-10-9-7-|
A-5-5--/9---------------|-5-5--/9---------------|
E-----------------------|-----------------------|

G----------------|-----------------------|
D----------------|-----------------------|
A---------5-7-8--|---------5-7-8-8-7-5-7-|
E-3-3--/7--------|-3-3--/7---------------|

G----------------|-----------------------|
D----------------|-----------------------|
A---------5-7-8--|---------5-7-8-8-7-5---|
E-3-3--/7--------|-3-3--/7------------7--|

G-----------------------|-----------------------|
D---------7-9-10-9-7-9--|---------7-9-10-10-9-7-|
A-5-5--/9---------------|-5-5--/9---------------|
E-----------------------|-----------------------|

Chorus:
Repeat Intro:
Verse:
Chorus: 2x (improvisation)

Lead: 4x
G-----------------------|-----------------------|
D---------7-9-10-9-7-9--|---------7-9-10-10-9-7-|
A-5-5--/9---------------|-5-5--/9---------------|
E-----------------------|-----------------------|




  2x
G---------------------|------------------------|
D---------------------|------------------------|
A---------5-7-8-7-5-7-|---------5-7-8-8-7-5-7--|
E-3-3--/7-------------|-3-3--/7----------------|

  2x
G-----------------------|-----------------------|
D---------7-9-10-9-7-9--|---------7-9-10-10-9-7-|
A-5-5--/9---------------|-5-5--/9---------------|
E-----------------------|-----------------------|

  4x
G--------------------|
D----------7-9-10----|
A--5-5--/9-----------|
E--------------------|

  Outro:
G-----------------------|
D---------7-9-10-9-7----|
A-5-5--/9---------------|
E-----------------------|
Comments