Motley Crue - Smokin In The Boys Room Chords & Tabs

 

Smokin In The Boys Room Chords & Tabs

Motley Crue Chords & Tabs

Version: 2 Type: Bass Tab

Smokin In The Boys Room Bass Tab

   
Title: SMOKIN' IN THE BOYS ROOM
Artist: MOTLEY CRUE
Album: THEATER OF PAIN
Tabber: Steph
Email: cyberbassist@hotmail.com


intro
G|--------|----|
D|*------*|----|
A|*--4h5-*|--5-|
E|--------|----|

Verse

G|-------------------|
D|*-----------------*|
A|*-4h5-4h5---------*|
E|----------5h6-5h6--|


Chorus
   G                       D                        A
G|-----------------------------------------------------------------------|
D|-----------------------------------------------------------------------|
A|-------------------------5-55-55-55-55-55-55-55-5----------------------|
E|-3-33-33-33-33-33-33-33-3-------------------------5-55-55-55--5--------|

   G             A            G           before solo
G|---------------------------------------|--------------------------------|
D|---------------------------------------|--------------------------------|
A|---------------------------------------|-4h5-4h5--5420------------------|
E|-3-33-33-33-3--5-55-55-55-5-3-33-33-33-|--------------------------------|

SOLO
  G                       D                       G
G|------------------------------------------------------------------------|
D|------------------------------------------------------------------------|
A|------------------------5-55-55-55-55-55-55-55-5------------------------|
E|3-33-33-33-33-33-33-33-3------------------------3-33-33-33-33-33-33-33-3|

  A                        G                       D
G|-------------------------------------------------------------------------|
D|-------------------------------------------------------------------------|
A|-------------------------------------------------5-55-55-55-55-55-55-55-5|
E|5-55-55-55-55-55-55-55-5-3-33-33-33-33-33-33-33-3------------------------|
[ Tab from: http://www.guitartabs.cc/tabs/m/motley_crue/smokin_in_the_boys_room_btab_ver_2.html ]
  G                        A                        G
G|-------------------------------------------------------------------------|
D|-------------------------------------------------------------------------|
A|-------------------------------------------------------------------------|
E|3-33-33-33-33-33-33-33-3-5-55-55-55-55-55-55-55-5-3-33-33-33-33-33-33-33-3|

  D                       G                        E            A
G|------------------------------------------------------------------------|
D|------------------------------------------------------------------------|
A|5-55-55-55-55-55-55-55-5------------------------------------------------|
E|------------------------3-33-33-33-33-33-33-33-3-0-00-00-00-0-5-55-55-55|

fill before break (drum + vocal)
G|-----------------------------|
D|-----------------------------|
A|--5-7-8-9--------------------|
E|-----------------------------|

after break:
   A                       G
G|--------------------------------------------------|--------------------|
D|*------------------------------------------------*|--------------------|
A|*------------------------------------------------*|--4h5--5-7-8-9------|
E|5-55-55-55-55-55-55-55-5-3-33-33-33-33-33-33-33-3-|--------------------|

   G                       D                        A
G|-----------------------------------------------------------------------|
D|-----------------------------------------------------------------------|
A|-------------------------5-55-55-55-55-55-55-55-5----------------------|
E|-3-33-33-33-33-33-33-33-3-------------------------5-55-55-55--5--------|

   G             A                D B A  F D        D
G|-----------------------------------------------------------------------|
D|-----------------------------------------------------------------------|
A|--------------------------------5------8-5--------5\-------------------|
E|-3-33-33-33-3--5-55-55-55-5-3-----7-5----------------------------------|