Motley Crue - Smokin In The Boys Room Chords & Tabs

 

Smokin In The Boys Room Chords & Tabs

Motley Crue Chords & Tabs

Version: 1 Type: Bass Tab 0 ratings
1 star 2 stars 3 stars 4 stars 5 stars
comments

Smokin In The Boys Room Bass Tab

Smokin' In The Boys Room
Motley Crue
tabbed by saturns_bassman

INTRO

You ever have one of those days...
	G-------------|
	D-------------|
	A--4-5--------|  8X (Hold 5)
	E-------------|

Well, let me tell you about it
	G-------------|
	D-------------|
	A--4-5--------|  
	E-------------|


Verse 1

Sittin in the classroom... 
	G-------------|-------------|-------------|-------------|
	D-------------|-------------|-------------|-------------|
	A--4-5--------|--4-5--------|-------------|-------------|   2X
	E-------------|-------------|--5-6--------|--5-6--------|


Chorus 1

Smokin' in the boys room...
	G-------------|-------------|-------------|-------------|
	D-------------|-------------|-------------|-------------|
	A-------------|-------------|-5555--------|-5555--------|   
	E-3333--------|-3333--------|-------------|-------------|


	G-------------|-------------|-------------|-------------|
	D-------------|-------------|-------------|-------------|
	A-0000--------|-3333--------|-0000--------|--4-5--------|
	E-------------|-------------|-------------|-------------|


	G-------------|-------------|
	D-------------|-------------|
	A--4-5--------|--4-5--------|
	E-------------|-------------|


Verse 2


Checkin' out the hall...
	G-------------|-------------|-------------|-------------|
	D-------------|-------------|-------------|-------------|
	A--4-5--------|--4-5--------|-------------|-------------|   2X
	E-------------|-------------|--5-6--------|--5-6--------|


Chorus 2

Smokin' in the boys room...
	G-------------|-------------|-------------|-------------|
	D-------------|-------------|-------------|-------------|
	A-------------|-------------|-5555--------|-5555--------|   
	E-3333--------|-3333--------|-------------|-------------|


	G-------------|-------------|-------------|-------------|
	D-------------|-------------|-------------|-------------|
	A-0000--------|-3333--------|-0000--------|--4-5--------|
	E-------------|-------------|-------------|-------------|


	G-------------|
	D-------------|
	A--4-5--------|
	E-------------|

Solo
[ Tab from: http://www.guitartabs.cc/tabs/m/motley_crue/smokin_in_the_boys_room_btab.html ]
Hey can I be excused...
	G-------------|-------------|-------------|-------------|
	D-------------|-------------|-------------|-------------|
	A-------------|-------------|-5555--------|-5555--------|   
	E-3333--------|-3333--------|-------------|-------------|
								   2X
	G-------------|-------------|-------------|-------------|
	D-------------|-------------|-------------|-------------|
	A-------------|-------------|-0000--------|-0000--------|
	E-3333--------|-3333--------|-------------|-------------|


	G-------------|-------------|-------------|-------------|
	D-------------|-------------|-------------|-------------|
	A-------------|-------------|-5555--------|-5555--------|   
	E-3333--------|-3333--------|-------------|-------------|

	G-------------|-------------|-------------|-------------|
	D-------------|-------------|-------------|-------------|
	A-------------|-------------|-0000--------|-5555--------|   
	E-3333--------|-3333--------|-------------|-------------|


Verse 3

Well, they put me to work... 
	G-------------|-------------|-------------|-------------|
	D-------------|-------------|-------------|-------------|
	A--4-5--------|--4-5--------|-------------|-------------|   2X
	E-------------|-------------|--5-6--------|--5-6--------|

Chorus 3

Smokin' in the boys room....
	G-------------|-------------|-------------|-------------|
	D-------------|-------------|-------------|-------------|
	A-------------|-------------|-5555--------|-5555--------|   
	E-3333--------|-3333--------|-------------|-------------|


	G-------------|-------------|-------------|-------------|
	D-------------|-------------|-------------|-------------|
	A-0000--------|-3333--------|-0000--------|--4-5--------|
	E-------------|-------------|-------------|-------------|


	G-------------|-------------|
	D-------------|-------------|
	A--4-5--------|---0-4-5-----|
	E-------------|-3-----------|

Break (claps, no bass)

Teacher doncha fill me...
	G-------------|-------------|-------------|-------------|
	D-------------|-------------|-------------|-------------|
	A-0000--------|-------------|-0000--------|--4-5--------|   
	E-------------|-3333--------|-------------|-------------|
  
				One More...		
	G-------------|-------------|
	D-------------|-------------|
	A--4-5--------|---0-4-5-----|
	E-------------|-3-----------|

Smokin' in the boys room...
	G-------------|-------------|-------------|-------------|
	D-------------|-------------|-------------|-------------|
	A-------------|-------------|-5555--------|-5555--------|   
	E-3333--------|-3333--------|-------------|-------------|

						...smokin' ain't allowed...
	G-------------|-------------|-------------|-------------|
	D-------------|-------------|-------------|-------------|
	A-0000--------|-------------|-0000--------|-------------|   
	E-------------|-3333--------|-------------|-------------|
        
        G-------------|
	D-------------|
	A-5-0--1-5----| 
	E-----3-------|
Comments