Motley Crue - Shout At The Devil Chords & Tabs

 

Shout At The Devil Chords & Tabs

Motley Crue Chords & Tabs

Version: 1 Type: Tab 0 ratings
1 star 2 stars 3 stars 4 stars 5 stars
comments

Shout At The Devil Tab

   
shout_at_the_devil




Song: Shout at the devil
By: Motley Crue
Tab by: Ernesto Vázquez 
Album: Shout at the devil

h: hammer
/: slide
~: pick slide
b: bend
p: pull off


Intro:
2x
E/--------------------------------------------------------------------/
B/--------------------------------------------------------------------/
G/--------------------------------------------------------------------/
D/------3-3---~~~~~~~~~~~~~~~~~~~-----5-5---~~~~~~~~~~~~~~~~~~~~~-----/
A/--5-5-1-1---~~~~~~~~~~~~~~~~~~~-----3-3---~~~~~~~~~~~~~~~~~~~~~-----/
E/--3-3-------~~~~~~~~~~~~~~~~~~~-3-3-------~~~~~~~~~~~~~~~~~~~~~-----/

Main riff:
E/-----------------------------/
B/-----------------------------/
G/-----------------------------/
D/------3-3-------5-5-------3-3/
A/--5-5-1-1---5-5-3-3---5-5-3-3/
E/--3-3-------3-3-------3-3----/

First he plays this

E/-----------------------------/
B/-----------------------------/
G/-----------------------------/
D/------3h5p3------------------/
A/--3h5-------3----------------/
E/-----------------------------/

In chorus it makes a change

E/-----------------------------/
B/----------8~~~---------------/
G/-----------------------------/
D/------3h5--------------------/
A/--3h5------------------------/
E/-----------------------------/

And for the outro(with strange rithym) he plays this:

E/-----------------------------/
B/-----------------------------/
G/-----------------------------/
D/------3h5p3--8~~~~-----------/
A/--3h5------------------------/
E/-----------------------------/
[ Tab from: http://www.guitartabs.cc/tabs/m/motley_crue/shout_at_the_devil_tab.html ]
Mean while, There is something that come with the main riff
Gutar2
E/----------------------------------/
B/--11b--10b--8b------11b--13b--8b--/
G/----------------------------------/
D/----------------------------------/
A/----------------------------------/
E/----------------------------------/

Verses:
3x
E/----------------------------/
B/----------------------------/
G/----------------------------/
D/--5--3--------3----5--3-----/
A/--3--1--5--5--1----3--1--5--/
E/--------3--3-------------3--/

Prechorus

E/----------------------------------/
B/----------------------------------/
G/----------------------------------/
D/--5--3--------3-----5------4------/
G/--3--1--5--5--1---3---3--2---2----/
E/--------3--3----------------------/

Solo:
Guitar 1
E/--------------------------------------------------------------------/
B/--11b-10b-8b----8h10-8h10-8h10-8h10b-10b--8h10-8h10-8h10/-----------/
G/--------------------------------------------------------------------/
D/--------------------------------------------------------------------/
A/--------------------------------------------------------------------/
E/--------------------------------------------------------------------/

E/--------------------------------------------------------------------/
B/--11b-10b--10/8----8/6--6/4-----------------------------------------/
G/--------------------------------------------------------------------/
D/--------------------------------------------------------------------/
A/--------------------------------------------------------------------/
E/--------------------------------------------------------------------/

Mean while, guitar2 plays this:

E/--------------------------------/
B/--------------------------------/
G/--------------------------------/
D/--------------------------------/
A/--5-5---5-5---5-5---5-5-5-5-8---/
E/--3-3---3-3---3-3---3-5-5-5-4---/

In fact, this is an easy song, but it's not peachy that is an antique.
But, have a good time
Any corrections to:  choby1000@hotmial.com

Enjoy it!!!!!!!!!!




Comments