Motley Crue - Shout At The Devil Chords & Tabs

 

Shout At The Devil Chords & Tabs

Motley Crue Chords & Tabs

Version: 4 Type: Bass Tab

Shout At The Devil Bass Tab

   
Shout at the Devil
Motley Crue
Bass



     Q    Q     Q    Q        Q    Q     Q    Q        Q    Q     Q    Q        Q    Q     Q    Q      
G||------------------------|------------------------|------------------------|------------------------|
D||------------------------|------------------------|------------------------|------------------------|
A||------------------------|------------------------|------------------------|------------------------|
E||-------3\---------3\----|-------3\---------3\----|-------3\---------3\----|-------3\---------3\----|


  Q    Q     Q    Q        Q    Q     Q    Q        Q    Q     Q    Q        Q    Q     Q    Q      
------------------------|------------------------|------------------------|------------------------|
------------------------|------------------------|------------------------|------------------------|
------------------------|------------------------|------------------------|------------------------|
-------3\---------3\----|-------3\---------3\----|-------3\---------3\----|-------3\---------3\----|


  Q    Q     Q    Q        Q    Q     Q    Q        Q    Q     Q    Q        Q    Q     Q    Q      
------------------------|------------------------|------------------------|------------------------|
------------------------|------------------------|------------------------|------------------------|
------------------------|------------------------|------------------------|------------------------|
-------3\---------3\----|-------3\---------3\----|-------3\---------3\----|-------3\---------3\----|


  Q    Q     Q    Q        Q    Q     Q    Q        Q    Q     Q    Q        Q    Q     H         
------------------------|------------------------|------------------------|----------------------|
------------------------|------------------------|------------------------|----------------------|
------------------------|------------------------|------------------------|----------------------|
-------3\---------3\----|-------3\---------3\----|-------3\---------3\----|-------3\-------------|


  Q    Q    E  E  S E.     E  E  E.  S E  E  Q       Q    Q    E  E  S E.     E  E  E.  S E  E  Q     
------------------------|-------------------------|------------------------|-------------------------|
------------------------|-------------------------|------------------------|-------------------------|
--3----1------------1---|--3--3--1---1------------|--3----1------------1---|--3--3--1---1------------|
------------3--3--3-----|--------------3----------|------------3--3--3-----|--------------3----------|


  Q    Q    E  E  S E.     E  E  E.  S E  E  Q       Q    Q    E  E  S E   S  
------------------------|-------------------------|--------------------------|
------------------------|-------------------------|--------------------------|
--3----1------------1---|--3--3--1---1------------|--3----1------------1p--0-|
------------3--3--3-----|--------------3----------|------------3--3--3-------|


  E  E  E  E  S S E  E  E     E  E  Q    E  E  Q       E  E  Q    S S S S S E.   
---------------------------|------------------------|---------------------------|
---------------------------|------------------------|-----------------3-5-3-3---|
--1--1-----1--0-0-0--3--0--|-------------------3----|-------------3-5-----------|
--------1------------------|--3--3--6----3--3-------|--3--3--6------------------|


  E  E  Q    E  E  Q       E  E  Q    S S S S S E.     Q    Q    E  E  S E.     E  E  E.  S E  E  Q     
------------------------|---------------------------|------------------------|-------------------------|
------------------------|-----------------3-5-3-3---|------------------------|-------------------------|
-------------------3----|-------------3-5-----------|--3----1------------1---|--3--3--1---1------------|
--3--3--6----3--3-------|--3--3--6------------------|------------3--3--3-----|--------------3----------|


  Q    Q    E  E  S E.     E  E  E.  S E  E  Q       Q    Q    E  E  S E.     E  E  E.  S E  E  Q     
------------------------|-------------------------|------------------------|-------------------------|
------------------------|-------------------------|------------------------|-------------------------|
--3----1------------1---|--3--3--1---1------------|--3----1------------1---|--3--3--1---1------------|
------------3--3--3-----|--------------3----------|------------3--3--3-----|--------------3----------|


  Q    Q    E  E  S E   S    E  E  E  E  S S E  E  E     E  E  Q    E  E  Q     
--------------------------|---------------------------|------------------------|
--------------------------|---------------------------|------------------------|
--3----1------------1p--0-|--1--1-----1--0-0-0--3--0--|-------------------3----|
------------3--3--3-------|--------1------------------|--3--3--6----3--3-------|

[ Tab from: http://www.guitartabs.cc/tabs/m/motley_crue/shout_at_the_devil_btab_ver_4.html ]
  E  E  Q    S S S S S E.     E  E  Q    E  E  Q       E  E  Q    E  S S S E.     E  E  Q    E  E  Q     
---------------------------|------------------------|--------------------------|------------------------|
-----------------3-5-3-3---|------------------------|--------------------------|------------------------|
-------------3-5-----------|-------------------3----|-------------3--3-3-3-3---|--0--0-------0--0-------|
--3--3--6------------------|--3--3--6----3--3-------|--3--3--6-----------------|------------------------|


  E  E  Q    E  E  Q       E  E  Q    E  E  Q       E  E  Q    E  E  Q       E  E  Q    E  E  Q     
------------------------|------------------------|------------------------|------------------------|
------------------------|------------------------|------------------------|------------------------|
--0--0-------0--0-------|--0--0-------0--0-------|--0--0-------0--0-------|--0--0-------0--0-------|
------------------------|------------------------|------------------------|------------------------|


  E  E  Q    E  E  Q       Q    Q    E  E  S E.     E  E  E.  S E  E  Q       Q    Q    E  E  S E.   
------------------------|------------------------|-------------------------|------------------------|
------------------------|------------------------|-------------------------|------------------------|
--0--0-------0--0-------|--3----1------------1---|--3--3--1---1------------|--3----1------------1---|
------------------------|------------3--3--3-----|--------------3----------|------------3--3--3-----|


  E  E  E.  S E  E  Q       Q    Q    E  E  S E.     E  E  E.  S E  E  Q       Q    Q    E  E  S E   S  
-------------------------|------------------------|-------------------------|--------------------------|
-------------------------|------------------------|-------------------------|--------------------------|
--3--3--1---1------------|--3----1------------1---|--3--3--1---1------------|--3----1------------1p--0-|
--------------3----------|------------3--3--3-----|--------------3----------|------------3--3--3-------|


  E  E  E  E  S S E  E  E     E  E  Q    E  E  Q       E  E  Q    S S S S S E.   
---------------------------|------------------------|---------------------------|
---------------------------|------------------------|-----------------3-5-3-3---|
--1--1-----1--0-0-0--3--0--|-------------------3----|-------------3-5-----------|
--------1------------------|--3--3--6----3--3-------|--3--3--6------------------|


  E  E  Q    E  E  Q       E  E  Q    S S S S S E.     W                   W                 
------------------------|---------------------------|-------------------|-------------------|
------------------------|-----------------3-5-3-3---|-------------------|-------------------|
-------------------3----|-------------3-5-----------|-------------------|-------------------|
--3--3--6----3--3-------|--3--3--6------------------|-------------------|-------------------|


  W                   W                   Q    Q    S S S S S E.     E  E  Q    E  E  Q     
-------------------|-------------------|--------------------5-3---|------------------------|
-------------------|-------------------|-------5--------3-5-------|------------------------|
-------------------|-------------------|------------3-5-----------|-------------------3----|
-------------------|-------------------|--------------------------|--3--3--6----3--3-------|


  E  E  Q    S S S S S E.     E  E  Q    E  E  Q       E  E  Q    S S S S S E.   
---------------------------|------------------------|---------------------------|
-----------------3-5-3-3---|------------------------|-----------------3-5-3-3---|
-------------3-5-----------|-------------------3----|-------------3-5-----------|
--3--3--6------------------|--3--3--6----3--3-------|--3--3--6------------------|


  E  S S S  S S S E  S S S  S S S    E  S S S  S S S S S S S S E.     E  S S S  S S S E  S S S  S S S  
----------------------------------|--------------------------------|----------------------------------|
----------------------------------|----------------------3-5-3-3---|----------------------------------|
----------------------------------|------------------3-5-----------|----------------------------------|
--3--3-3-5S-6-3-3-3--3-3-7S-8-3-3-|--3--3-3-5S-6-3-3---------------|--3--3-3-5S-6-3-3-3--3-3-7S-8-3-3-|


  E  S S S  S S S S S S S S E.     E  S S S  S S S E  S S S  S S S    E  S S S  S S S S S S S S E.   
--------------------------------|----------------------------------|--------------------------------|
----------------------3-5-3-3---|----------------------------------|----------------------3-5-3-3---|
------------------3-5-----------|----------------------------------|------------------3-5-----------|
--3--3-3-5S-6-3-3---------------|--3--3-3-5S-6-3-3-3--3-3-7S-8-3-3-|--3--3-3-5S-6-3-3---------------|


  E  S S S  S S S E  S S S  S S S    E  S S S  S S S S S S S S E.    
----------------------------------|--------------------------------||
----------------------------------|----------------------3-5-3-3---||
----------------------------------|------------------3-5-----------||
--3--3-3-5S-6-3-3-3--3-3-7S-8-3-3-|--3--3-3-5S-6-3-3---------------||