Motley Crue - Shout At The Devil Chords & Tabs

 

Shout At The Devil Chords & Tabs

Motley Crue Chords & Tabs

Version: 3 Type: Bass Tab 0 ratings
1 star 2 stars 3 stars 4 stars 5 stars
comments

Shout At The Devil Bass Tab

Shout At The Devil
Motley Crue
tabbed by saturns_bassman

Drop D tuning
r = rest
\ = slide down

Intro:
G:-------------------------------------------------------------|
D:-------------------------------------------------------------|
A:-------------------------------------------------------------|
D:-r-8-r-8-r-8-r-8\---r-10-r-10-r-10-r-10\---------------------|

G:-------------------------------------------------------------|
D:-------------------------------------------------------------|
A:-------------------------------------------------------------|
D:-r-8-r-8-r-8-r-8\---r-10-r-10-r-10-r-10\---------------------|


G:-------------------------------------------------------------|
D:---------------------------------------------------------3-5-|
A:-1-------3-------1-----1----1------3------1----------3-5-----|
D:-------------------------------------------------5-7---------|

Chorus:


G:-------------------------------------------------------------|
D:---------------------------------------------3-5-------------|
A:------------------3----------------------3-5-----------------|
D:-5-5--8------5-5---------5-5--8------5-7---------------------|


G:-------------------------------------------------------------|
D:---------------------------------------------3-5-------------|
A:------------------3----------------------3-5-----------------|
D:-5-5--8------5-5---------5-5--8------5-7---------------------|

Verse I:


G:-------------------------------------------------------------|
D:-------------------------------------------------------------|
A:-3--1-----1--3--1---------3--1-----1--3--1-------------------|
D:-------5-----------5------------5-----------5----------------|


G:-------------------------------------------------------------|
D:-------------------------------------------------------------|
A:-3--1-----1--3--1---------3--1-----1--1--0-------------------|
D:-------5-----------5------------5----------------------------|

Chorus:


G:-------------------------------------------------------------|
D:---------------------------------------------3-5-------------|
A:------------------3----------------------3-5-----------------|
D:-5-5--8------5-5---------5-5--8------5-7---------------------|
[ Tab from: http://www.guitartabs.cc/tabs/m/motley_crue/shout_at_the_devil_btab_ver_3.html ]
G:-------------------------------------------------------------|
D:---------------------------------------------3-5-------------|
A:------------------3----------------------3-5-----------------|
D:-5-5--8------5-5---------5-5--8------5-7---------------------|

Verse II:


G:--------------------------------------------10--9--9--9------|
D:--------------------------------------------10-10-10-10------|
A:-3--1-----1--3--1---------3--1-----1--3--1-------------------|
D:-------5-----------5------------5----------------------------|


G:-------------------------------------------------------------|
D:-------------------------------------------------------------|
A:-3--1-----1--3--1---------3--1-----1--1--0-------------------|
D:-------5-----------5------------5----------------------------|

Repeat Chorus:

Guitar solo section:

G:-------------------------------------------------------------|
D:----------------------------------3-5------------------------|
A:------------------------------3-5----------------------------|
D:-0-0--3---0-0--3--0-0--3--5-7--------------------------------|


G:-------------------------------------------------------------|
D:----------------------------------3-5------------------------|
A:------------------------------3-5----------------------------|
D:-0-0--3---0-0--3--0-0--3--5-7--------------------------------|


G:-------------------------------------------------------------|
D:-------------------------------------------------------------|
A:-------------------------------------------------------------|
D:-0-0--3---0-0--3--0-0--3--3---4------------------------------|

Verse:


G:-------------------------------------------------------------|
D:---------------------------------------------5-3-------------|
A:-3--1-----1--3--1---------3--1-----1--3--1-------5-4---------|
D:-------5-----------5------------5----------------------------|


G:-------------------------------------------------------------|
D:-------------------------------------------------------------|
A:-3--1-----1--3--1---------3--1-----1--1--0-------------------|
D:-------5-----------5------------5----------------------------|

Repeat Chorus:
Break:
Repeat Chorus:

Outro:

G:-------------------------------------------------------------|
D:-------------------------------------------------------------|
A:-------------------------------------------------------------|
D:-5-55-5555--5-55-5555--5-55-5555--5-55-5555------------------|
Comments