Motley Crue - Shout At The Devil Chords & Tabs

 

Shout At The Devil Chords & Tabs

Motley Crue Chords & Tabs

Version: 2 Type: Bass Tab 0 ratings
1 star 2 stars 3 stars 4 stars 5 stars
comments

Shout At The Devil Bass Tab

motley crue
shout at the devil
from the album (shout at the devil)
words and music (nikki sixx)

g---------------------------------------------------------------------------
------------------------------------------------
d---------------------------------------------------------------------------
------------------------------------------------
a---------------------------------------------------------------------------
------------------------------------------------
e--15--/--/--/------15--/--/--/----15--/--/--/----16--/--/--/---16--/--/--/-
---15--/--/--/---15--/--/--/---------
                    /  /  /  means slide up to where ever
g-------------------------------------------------------------------
d-------------------------------------------------------------------
a-------------------------------------------------------------------
e---15--/--/--/--16--/--/--/---16--/--/--/---16--/--/--/------             
                                          

beginning                                                                  
                                         
of song
[ Tab from: http://www.guitartabs.cc/tabs/m/motley_crue/shout_at_the_devil_btab_ver_2.html ]
g---------------------------------------------------------------------------
-------------------------
d------------------------------------------5--3-----------------------------
--------------5--3----
a------------------------------------3--5-----------------------------------
--------3--5----------
e-0-0-3"-0-0-5"-0-0-3"--3--5-------------0-0-3"-0-0-5"-0-0-3"--3--5---------
-------
play two times before verses
  shout shout shout  shout at the devil                                    
          
"means let ring out
heres the verses

g---------------------------------------------------------------------------

d---------------------------------------------------------------------------

a--5--3--------3--5--3-----------------5--3--------3--5--3-----------
e--------5--5-------------5---------------------5--5------------5-------
hes a wolf screaming lonely in the night etc.

g---------------------------------------------------------------------------
---------------
d------------------------------------------------------------------5--------
-----7--------
a-5--3-------3--5--3--------------------5--3---------3--3-3----3-----5-5---5
-----
e------5--5-------------5------------------------5--5-----------------------
------------

                                                  be strong and laugh and
etc.

back to chorus
back to open open 3  open open 5   open open 3
                       shout             shout             shout
Comments