Motley Crue - Shout At The Devil 97 Chords & Tabs

 

Shout At The Devil 97 Chords & Tabs

Motley Crue Chords & Tabs

Version: 2 Type: Tab 0 ratings
1 star 2 stars 3 stars 4 stars 5 stars
comments

Shout At The Devil 97 Tab

   
shout at the devil '97
motley crue

^- use bar
~- let note ring
h- hold
x- palm mute
/- slide down
\- slide up

get some feedback goin, and ride the bar down and up 
until nikki stops playing

intro- bass
e-------------------------------------
B-------------------------------------
G-------------------------------------
D-------------------------------------
A-3---------3------------3----------3-
E-------------------------------------

use a flange effect with some delay
e------------------------------------------------------
B------------------------------------------------------
G------------------------------------------------------
D------------------------------------------------------
A------------------------------------------------------
E-3--3-3-3---3--3-3-3---3--3-3-3---3--3-3-3---3--3-3-3-

distortion
e----------------------------------------------
B----------------------------------------------
G----------------------------------------------
D----------------------------------------------
A----------------------------------------------
E-3--3-3-3---3--3-3-3--3-3-3/15-15-15-15-15-15-

e-------------------------------------------------------
B-------------------------------------------------------
G---------------------------------------------------5-3-
D-5-5----6-6----5-5----7-7----5-5----6-6-------3--------
A-5-5----6-6----5-5----7-7----5-5----6-6---3-5---5------
E-3-3----4-4----3-3----5-5----3-3----4-4----------------

e-------------------------------------------------------
B-------------------------------------------------------
G---------------------------------------------------5-3-
D-5-5----6-6----5-5----7-7----5-5----6-6-------3--------
A-5-5----6-6----5-5----7-7----5-5----6-6---3-5---5------
E-3-3----4-4----3-3----5-5----3-3----4-4----------------

verse
e-----------------------------------------
B--------------------------------------3b-
G--------------------------------------2b-
D-5-5-x-x-x-x-6-6-x-x-x-x-5-5-x-x-x-x-----
A-5-5-x-x-x-x-6-6-x-x-x-x-5-5-x-x-x-x-----
E-3-3-x-x-x-x-4-4-x-x-x-x-3-3-x-x-x-x-----

e-----------------------------------------------
B-----------------------------------------------
G-----------------------------------------------
D-5-5-x-x-x-x-6-6-x-x-x-x-5-5-x-x-x-x-3-x-x-x-x-
A-5-5-x-x-x-x-6-6-x-x-x-x-5-5-x-x-x-x-3-x-x-x-x-
E-3-3-x-x-x-x-4-4-x-x-x-x-3-3-x-x-x-x-1-x-x-x-x-

e-----------------------------------------
B--------------------------------------3b-
G--------------------------------------2b-
D-5-5-x-x-x-x-6-6-x-x-x-x-5-5-x-x-x-x-----
A-5-5-x-x-x-x-6-6-x-x-x-x-5-5-x-x-x-x-----
E-3-3-x-x-x-x-4-4-x-x-x-x-3-3-x-x-x-x-----

e----------------------------------
B----------------------------------
G----------------------------------
D-5-5-x-x-x-x-6-6-x-x-x-x--9-8-7-6-
A-5-5-x-x-x-x-6-6-x-x-x-x--9-8-7-6-
E-3-3-x-x-x-x-4-4-x-x-x-x--7-6-5-4-

chorus
e---------------------------------------------------
B---------------------------------------------------
G-----------------------------------------------5-3-
D-5-5-x-5-5----5-5-x-5-5----5-5-x-5-5-------3-------
A-5-5-x-5-5----5-5-x-5-5----5-5-x-5-5---3-5---5-----
E-3-3-x-3-3----3-3-x-3-3----3-3-x-3-3---------------

e---------------------------------------------------
B---------------------------------------------------
G-----------------------------------------------5-3-
D-5-5-x-5-5----5-5-x-5-5----5-5-x-5-5-------3-------
A-5-5-x-5-5----5-5-x-5-5----5-5-x-5-5---3-5---5-----
E-3-3-x-3-3----3-3-x-3-3----3-3-x-3-3---------------

verse
e-----------------------------------------
B--------------------------------------3b-
G--------------------------------------2b-
D-5-5-x-x-x-x-6-6-x-x-x-x-5-5-x-x-x-x-----
A-5-5-x-x-x-x-6-6-x-x-x-x-5-5-x-x-x-x-----
E-3-3-x-x-x-x-4-4-x-x-x-x-3-3-x-x-x-x-----

e-----------------------------------------------
B-----------------------------------------------
G-----------------------------------------------
D-5-5-x-x-x-x-6-6-x-x-x-x-5-5-x-x-x-x-3-x-x-x-x-
A-5-5-x-x-x-x-6-6-x-x-x-x-5-5-x-x-x-x-3-x-x-x-x-
E-3-3-x-x-x-x-4-4-x-x-x-x-3-3-x-x-x-x-1-x-x-x-x-

e-----------------------------------------
B--------------------------------------3b-
G--------------------------------------2b-
D-5-5-x-x-x-x-6-6-x-x-x-x-5-5-x-x-x-x-----
A-5-5-x-x-x-x-6-6-x-x-x-x-5-5-x-x-x-x-----
E-3-3-x-x-x-x-4-4-x-x-x-x-3-3-x-x-x-x-----

e------------------------------------
B------------------------------------
G------------------------------------
D-5-5-x-x-x-x-6-6-x-x-x-x--9-8-9-7-6-
A-5-5-x-x-x-x-6-6-x-x-x-x--9-8-9-7-6-
E-3-3-x-x-x-x-4-4-x-x-x-x--7-6-7-5-4-

chorus
e---------------------------------------------------
B---------------------------------------------------
G-----------------------------------------------5-3-
D-5-5-x-5-5----5-5-x-5-5----5-5-x-5-5-------3-------
A-5-5-x-5-5----5-5-x-5-5----5-5-x-5-5---3-5---5-----
E-3-3-x-3-3----3-3-x-3-3----3-3-x-3-3---------------

e---------------------------------------------------
B---------------------------------------------------
G-----------------------------------------------5-3-
D-5-5-x-5-5----5-5-x-5-5----5-5-x-5-5-------3-------
A-5-5-x-5-5----5-5-x-5-5----5-5-x-5-5---3-5---5-----
E-3-3-x-3-3----3-3-x-3-3----3-3-x-3-3---------------

e---------------------------------------------------
B---------------------------------------------------
G-----------------------------------------------5-3-
D-5-5-x-5-5----5-5-x-5-5----5-5-x-5-5-------3-------
A-5-5-x-5-5----5-5-x-5-5----5-5-x-5-5---3-5---5-----
E-3-3-x-3-3----3-3-x-3-3----3-3-x-3-3---------------

e---------------------------------------------------
B---------------------------------------------------
G-----------------------------------------------5-3-
D-5-5-x-5-5----5-5-x-5-5----5-5-x-5-5-------3-------
A-5-5-x-5-5----5-5-x-5-5----5-5-x-5-5---3-5---5-----
E-3-3-x-3-3----3-3-x-3-3----3-3-x-3-3---------------
[ Tab from: http://www.guitartabs.cc/tabs/m/motley_crue/shout_at_the_devil_97_tab_ver_2.html ]
bridge
e--------------------------------
B------3h4--------2h3--------0h2-
G--------------------------------
D-5-5------x-5-5------x-5-5------
A-5-5------x-5-5------x-5-5------
E-3-3------x-3-3------x-3-3------

e--------------------------------
B------3h4--------2h3--------0h2-
G--------------------------------
D-5-5------x-5-5------x-5-5------
A-5-5------x-5-5------x-5-5------
E-3-3------x-3-3------x-3-3------

e----------------------------------7^-9^-10^~~------
B------0h2--------2h3--------3h4--------------------
G---------------------------------------------------
D-5-5------x-5-5------x-5-5--------------------\-x/-
A-5-5------x-5-5------x-5-5--------------------\-x/-
E-3-3------x-3-3------x-3-3--------------------\-x/-

verse
e-----------------------------------------------
B-----------------------------------------------
G-----------------------------------------------
D-5-5-x-x-x-x-6-6-x-x-x-x-5-5-x-x-x-x-3-x-x-x-x-
A-5-5-x-x-x-x-6-6-x-x-x-x-5-5-x-x-x-x-3-x-x-x-x-
E-3-3-x-x-x-x-4-4-x-x-x-x-3-3-x-x-x-x-1-x-x-x-x-

e-----------------------------------------
B--------------------------------------3b-
G--------------------------------------2b-
D-5-5-x-x-x-x-6-6-x-x-x-x-5-5-x-x-x-x-----
A-5-5-x-x-x-x-6-6-x-x-x-x-5-5-x-x-x-x-----
E-3-3-x-x-x-x-4-4-x-x-x-x-3-3-x-x-x-x-----

e-------------------------------------------------
B-------------------------------------------------
G-------------------------------------------------
D-5-5-x-x-x-x-6-6-x-x-x-x-5-5-x-----5---------6---
A-5-5-x-x-x-x-6-6-x-x-x-x-5-5-x-------5---------6-
E-3-3-x-x-x-x-4-4-x-x-x-x-3-3-x---3--------4------

chorus
e---------------------------------------------------
B---------------------------------------------------
G-----------------------------------------------5-3-
D-5-5-x-5-5----5-5-x-5-5----5-5-x-5-5-------3-------
A-5-5-x-5-5----5-5-x-5-5----5-5-x-5-5---3-5---5-----
E-3-3-x-3-3----3-3-x-3-3----3-3-x-3-3---------------

e---------------------------------------------------
B---------------------------------------------------
G-----------------------------------------------5-3-
D-5-5-x-5-5----5-5-x-5-5----5-5-x-5-5-------3-------
A-5-5-x-5-5----5-5-x-5-5----5-5-x-5-5---3-5---5-----
E-3-3-x-3-3----3-3-x-3-3----3-3-x-3-3---------------

interlude
e---------------------------
B-3--3-3--3-----3-3--3--3-3-
G-3--3-3--3-----3-3--3--3-3-
D-5--5-5--5-----5-5--5--5-5-
A-5--5-5--5-----5-5--5--5-5-
E-3--3-3--3-----3-3--3--3-3-

e---------------------------
B-3--3-3--3-----3-3--3--3-3-
G-3--3-3--3-----3-3--3--3-3-
D-5--5-5--5-----5-5--5--5-5-
A-5--5-5--5-----5-5--5--5-5-
E-3--3-3--3-----3-3--3--3-3-

e---------------------------
B-3--3-3--3-----3-3--3--3-3-
G-3--3-3--3-----3-3--3--3-3-
D-5--5-5--5-----5-5--5--5-5-
A-5--5-5--5-----5-5--5--5-5-
E-3--3-3--3-----3-3--3--3-3-

e---------------------------
B-3--3-3--3-----3-3--3--3-3-
G-3--3-3--3-----3-3--3--3-3-
D-5--5-5--5-----5-5--5--5-5-
A-5--5-5--5-----5-5--5--5-5-
E-3--3-3--3-----3-3--3--3-3-

e---------------------------
B-3--3-3--3-----3-3--3--3-3-
G-3--3-3--3-----3-3--3--3-3-
D-5--5-5--5-----5-5--5--5-5-
A-5--5-5--5-----5-5--5--5-5-
E-3--3-3--3-----3-3--3--3-3-

e---------------------------
B-3--3-3--3-----3-3--3--3-3-
G-3--3-3--3-----3-3--3--3-3-
D-5--5-5--5-----5-5--5--5-5-
A-5--5-5--5-----5-5--5--5-5-
E-3--3-3--3-----3-3--3--3-3-

e---------------------------
B-3--3-3--3-----3-3--3--3-3-
G-3--3-3--3-----3-3--3--3-3-
D-5--5-5--5-----5-5--5--5-5-
A-5--5-5--5-----5-5--5--5-5-
E-3--3-3--3-----3-3--3--3-3-

outro
e---------------------------
B--10^-------9^----------7^-
G---------------------------
D---------------------------
A---------------------------
E---------------------------

e---------------------------
B--10^------12^----------7^-
G---------------------------
D---------------------------
A---------------------------
E---------------------------

e--------------------------------------------------------------
B-3--3-3--3-------3--3-3--3-------3--3-3--3--------------------
G-3--3-3--3-------3--3-3--3-------3--3-3--3----------------5-3-
D-5--5-5--5--5-5--5--5-5--5--6-6--5--5-5--5--5-5-------3-------
A-5--5-5--5--5-5--5--5-5--5--6-6--5--5-5--5--5-5---3-5---5-----
E-3--3-3--3--3-3--3--3-3--3--4-4--3--3-3--3--3-3---------------

e--------------------------------------------------------------
B-3--3-3--3-------3--3-3--3-------3--3-3--3--------------------
G-3--3-3--3-------3--3-3--3-------3--3-3--3----------------5-3-
D-5--5-5--5--5-5--5--5-5--5--6-6--5--5-5--5--5-5-------3-------
A-5--5-5--5--5-5--5--5-5--5--6-6--5--5-5--5--5-5---3-5---5-----
E-3--3-3--3--3-3--3--3-3--3--4-4--3--3-3--3--3-3---------------

e------------------------------------------------
B------------------------------------------------
G------------------------------------------------
D-5-5-x-x-x-x-6-6-x-x-x-x-7-7-x-x-x-x-8-x-9-x-10-
A-5-5-x-x-x-x-6-6-x-x-x-x-7-7-x-x-x-x-8-x-9-x-10-
E-3-3-x-x-x-x-4-4-x-x-x-x-5-5-x-x-x-x-6-x-7-x--8-

e------------------------------------------------
B------------------------------------------------
G------------------------------------------------
D-5-5-x-x-x-x-6-6-x-x-x-x-7-7-x-x-x-x-8-x-9-x-10-
A-5-5-x-x-x-x-6-6-x-x-x-x-7-7-x-x-x-x-8-x-9-x-10-
E-3-3-x-x-x-x-4-4-x-x-x-x-5-5-x-x-x-x-6-x-7-x--8-

e------------------------------------------------
B------------------------------------------------
G------------------------------------------------
D-5-5-x-x-x-x-6-6-x-x-x-x-7-7-x-x-x-x-8-x-9-x-10-
A-5-5-x-x-x-x-6-6-x-x-x-x-7-7-x-x-x-x-8-x-9-x-10-
E-3-3-x-x-x-x-4-4-x-x-x-x-5-5-x-x-x-x-6-x-7-x--8-

e-------------------------------------------------
B-------------------------------------------------
G-------------------------------------------------
D-5-5-x-x-x-x-6-6-x-x-x-x-7-7-x-x-x-x-8-x-9-x-10^-
A-5-5-x-x-x-x-6-6-x-x-x-x-7-7-x-x-x-x-8-x-9-x-10^-
E-3-3-x-x-x-x-4-4-x-x-x-x-5-5-x-x-x-x-6-x-7-x--8^-

questions email me- valkeyrie3@hotmail.com
Comments