Motley Crue - Shout At The Devil 97 Chords & Tabs

 

Shout At The Devil 97 Chords & Tabs

Motley Crue Chords & Tabs

Version: 1 Type: Tab 0 ratings
1 star 2 stars 3 stars 4 stars 5 stars
comments

Shout At The Devil 97 Tab

   
#-----------------------------PLEASE NOTE-------------------------------------#
#This OLGA file is the author's own work and represents their interpretation  #
#of the song. You may only use this file for private study, scholarship, or   #
#research. Remember to view this file in Courier, or some other monospaced    #
#font. See http://www.olga.net/faq/ for more information.                     #
#-----------------------------------------------------------------------------#

Date: Wed, 9 Aug 2000 18:11:35 -0400
From: "Gabriel Salazar" 
Subject: m/motley_crue/shout_at_the_devil_97.tab

Shout at the Devil '97
>From the album Generation Swine
Performed by Motley Crue (Written by Nikki Sixx)
Tabbed by Gabriel Salazar 

intro:
e)--------------|--------------|--------------|--------------|
B)--------------|--------------|--------------|--------------|
G)--------------|--------------|--------------|--------------|
D)--------------|--------------|--------------|--------------|
A)--3-----------|--3-----------|--3-----------|--3-----------|
E)--------------|--------------|--------------|--------------|

e)-------------------------------------------------------------------|
B)-------------------------------------------------------------------|
G)-------------------------------------------------------------------|
D)-------------------------------------------------------------------|
A)-------------------------------------------------------------------|
E)-3--3-3-3--3-3-3--3-3-3--3-3-3--3-3-3--3-3-3--3-3-3--3-3-3--3-3-3--|

                                  |[with distortion]|
e)--------------------------------------------------|
B)--------------------------------------------------|
G)--------------------------------------------------|
D)--------------------------------------------------|
A)--------------------------------------------------|
E)-3-3-3--3-3-3--3-3-3--3-3-3--3-3\15-15-15-15-15-15|

riff 1:
e)------------|------------|------------|------------|
B)------------|------------|------------|------------|
G)------2h3---|--------3h5-|--------2h3-|------------|
D)-5-5--------|-x-5-5------|-x-5-5------|-----3~~----|
A)-5-5--------|-x-5-5------|-x-5-5------|-3h5----5-3~|
E)-3-3--------|-x-3-3------|-x-3-3------|------------|

riff 2:
e)------------|------------|------------|------------|
B)------------|------------|------------|-2----------|
G)------------|------------|------------|-3^---------|
D)-5-5-x-x-x-x|-6-6-x-x-x-x|-5-5-x-x-x-x|------------|
A)-5-5-x-x-x-x|-6-6-x-x-x-x|-5-5-x-x-x-x|------------|
E)-3-3-x-x-x-x|-4-4-x-x-x-x|-3-3-x-x-x-x|------------|

e)------------|------------|------------|------------|
B)------------|------------|------------|------------|
G)------------|------------|------------|------------|
D)-5-5-x-x-x-x|-6-6-x-x-x-x|-5-5-x-x-x-x|-6x-x-x-x-x-|
A)-5-5-x-x-x-x|-6-6-x-x-x-x|-5-5-x-x-x-x|-6x-x-x-x-x-|
E)-3-3-x-x-x-x|-4-4-x-x-x-x|-3-3-x-x-x-x|-4x-x-x-x-x-|

e)------------|------------|------------|------------|
B)------------|------------|------------|-2----------|
G)------------|------------|------------|-3^---------|
D)-5-5-x-x-x-x|-6-6-x-x-x-x|-5-5-x-x-x-x|------------|
A)-5-5-x-x-x-x|-6-6-x-x-x-x|-5-5-x-x-x-x|------------|
E)-3-3-x-x-x-x|-4-4-x-x-x-x|-3-3-x-x-x-x|------------|

e)------------|------------|------------|------------|
B)------------|------------|------------|------------|
G)------------|------------|------------|------------|
D)-5-5-x-x-x-x|-6-6-x-x-x-x|----5-------|----3-------|
A)-5-5-x-x-x-x|-6-6-x-x-x-x|------5-----|------3-----|
E)-3-3-x-x-x-x|-4-4-x-x-x-x|-3----------|-1----------|

riff 3:
e)------------|------------|------------|------------|
B)------------|------------|------------|------------|
G)------------|------------|------------|------------|
D)-5-5--7-8---|-x-5-5--8-10|-x-5-5--7-8-|-----3~~----|
A)-5-5--7-8---|-x-5-5--8-10|-x-5-5--7-8-|-3h5----5-3~|
E)-3-3--5-6---|-x-3-3--6-8-|-x-3-3--5-6-|------------|
[ Tab from: http://www.guitartabs.cc/tabs/m/motley_crue/shout_at_the_devil_97_tab.html ]
riff 4:
e)-----0h2-------------------------------------------|
B)---------------3h5-------2h3---3p2-2---------------|
G)-------------------------------------5p3-3-3p2-----|
D)-5-5-----x-5-5-----x-5-5---------------------------|
A)-5-5-----x-5-5-----x-5-5---------------------------|
E)-3-3-----x-3-3-----x-3-3---------------------------|

e)-----0h2-------------------------------------------|
B)---------------3h5-------2h3---3p2-2---------------|
G)-------------------------------------5p3-3-3p2-----|
D)-5-5-----x-5-5-----x-5-5---------------------------|
A)-5-5-----x-5-5-----x-5-5---------------------------|
E)-3-3-----x-3-3-----x-3-3---------------------------|

e)-----0h2-------2h3-------3h4--7^-9^-10^------------|
B)---------------------------------------------------|
G)---------------------------------------------------|
D)-5-5-----x-5-5-----x-5-5------------------------x/-|
A)-5-5-----x-5-5-----x-5-5------------------------x/-|
E)-3-3-----x-3-3-----x-3-3------------------------x/-|

riff 5:
e)------------|------------|------------|------------|
B)------------|------------|------------|------------|
G)------------|------------|------------|------------|
D)-5-5-x-x-x-x|-6-6-x-x-x-x|-5-5-x-x-x-x|-6x-x-x-x-x-|
A)-5-5-x-x-x-x|-6-6-x-x-x-x|-5-5-x-x-x-x|-6x-x-x-x-x-|
E)-3-3-x-x-x-x|-4-4-x-x-x-x|-3-3-x-x-x-x|-4x-x-x-x-x-|

e)------------|------------|------------|------------|
B)------------|------------|------------|-2----------|
G)------------|------------|------------|-3^---------|
D)-5-5-x-x-x-x|-6-6-x-x-x-x|-5-5-x-x-x-x|------------|
A)-5-5-x-x-x-x|-6-6-x-x-x-x|-5-5-x-x-x-x|------------|
E)-3-3-x-x-x-x|-4-4-x-x-x-x|-3-3-x-x-x-x|------------|

e)------------|------------|------------|------------|
B)------------|------------|------------|------------|
G)------------|------------|------------|------------|
D)-5-5-x-x-x-x|-6-6-x-x-x-x|----5-------|----6-------|
A)-5-5-x-x-x-x|-6-6-x-x-x-x|------5-----|------6-----|
E)-3-3-x-x-x-x|-4-4-x-x-x-x|-3----------|-4----------|

riff 6:
e)------------|------------|-x-x---x-x--|-x--x---x---|
B)-3--3-3--3--|-3-3--3--3-3|-x-x---x-x--|-x--x---x---|
G)-3--3-3--3--|-3-3--3--3-3|-x-x---x-x--|-x--x---x---|
D)-5--5-5--5--|-5-5--5--5-5|-x-x---x-x--|-x--x---x---|
A)-5--5-5--5--|-5-5--5--5-5|-x-x---x-x--|-x--x---x---|
E)-3--3-3--3--|-3-3--3--3-3|-x-x---x-x--|-x--x---x---|

riff 7:
e)------------|------------|------------|------------|
B)--10^-------|--9^--------|--8^--------|------------|
G)------------|------------|------------|------------|
D)------------|------------|------------|------------|
A)------------|------------|------------|------------|
E)------------|------------|------------|------------|

e)------------|------------|------------|------------|
B)--10^-------|-12^--------|--8^--------|------------|
G)------------|------------|------------|------------|
D)------------|------------|------------|------------|
A)------------|------------|------------|------------|
E)------------|------------|------------|------------|

riff 8:
e)------------|------------|------------|------------|
B)------------|------------|------------|------------|
G)------------|------------|------------|------------|
D)-5-5-x-x-x-x|-6-6-x-x-x-x|-7-7-x-x-x-x|-8-x-9-x-10-|
A)-5-5-x-x-x-x|-6-6-x-x-x-x|-7-7-x-x-x-x|-8-x-9-x-10-|
E)-3-3-x-x-x-x|-4-4-x-x-x-x|-5-5-x-x-x-x|-6-x-7-x-8--|


e)------------|------------|------------|------------|
B)------------|------------|------------|------------|
G)------------|------------|------------|------------|
D)------------|------------|------------|------------|
A)------------|------------|------------|------------|
E)------------|------------|------------|------------|

e)------------|------------|------------|------------|
B)------------|------------|------------|------------|
G)------------|------------|------------|------------|
D)------------|------------|------------|------------|
A)------------|------------|------------|------------|
E)------------|------------|------------|------------|

song structure:
intro
riff 1 (x2)
riff 2 (x1)
riff 3 (x2)
riff 2 (x1)
riff 3 (x4)
riff 4 (x1)
riff 5 (x1)
riff 3 (x2)
just strum on Gm (hear the song to get the rhythm)
riff 6 (x2)
riff 7 (x1)
riff 1 (x2)
riff 8 (x4)
end of the song
Comments