Motley Crue - She Needs Rock N Roll Chords & Tabs

 

She Needs Rock N Roll Chords & Tabs

Motley Crue Chords & Tabs

Version: 1 Type: Tab 0 ratings
1 star 2 stars 3 stars 4 stars 5 stars
comments

She Needs Rock N Roll Tab

   
Band- Motley Crue
Song- She Needs Rock N Roll

h -hold
p -pull
/ -slide down
^ -use bar
~ -let ring
x -palm mute

INTRO
d-------------------------------------------------------|
g-------------------------------------------------------|
c-------------------------------------------------------|
f--2--2--x--x--x--x--5--5--x--x--x--x--7--7--x--x--x--x-|
a--2--2--x--x--x--x--5--5--x--x--x--x--7--7--x--x--x--x-|
d--0--0--x--x--x--x--3--3--x--x--x--x--5--5--x--x--x--x-|

  (distortion)     Over The first Chord Progression
d-------------------------------------------------------|
g-------------------------------------------------------|
c----------------9--9--9h11p9----9--9--9h11p9---9--9--9-|
f--5-----6----------------------------------------------|
a--3-----4----------------------------------------------|
d-------------------------------------------------------|
start fig A
d-----------------------------------------------------------|
g-----------------------------------------------------------|
c--9h11p9------9--9--9--9--9--9-----9--9--9h11p9----9--9--9-|
f-----------------------------------------------------------|
a-----------------------------------------------------------|
d-----------------------------------------------------------|

end fig A
d---------------------------------------------------|
g---------------------------------------------------|
c--9h11p9----9--9--9h11p9----9--9--9--9--9--9--9--9-|
f---------------------------------------------------|
a---------------------------------------------------|
d---------------------------------------------------|

VERSE
d-------------------9--10--12^---12^--12^--12^---------------|
g----------10--12--------------------------------------------|
c--11--12----------------------------------------------------|
f-------------------------------------------------2--2--x--x-|
a-------------------------------------------------2--2--x--x-|
d-------------------------------------------------0--0--x--x-|

d----------------------------------------------------------|
g----------------------------------------------------------|
c----------------------------------------------------------|
f--x--x--5--5--x--x--x--x--7--7--x--x--x--x--7--7--x--x--x-|
a--x--x--5--5--x--x--x--x--7--7--x--x--x--x--7--7--x--x--x-|
d--x--x--3--3--x--x--x--x--5--5--x--x--x--x--5--5--x--x--x-|

d--------------------------------------------18------17--|
g--------------------------------------------20^-----19^-|
c--------------------------------------------------------|
f--x--2--2--x--x--x--x--5--5--x--x--x--x-----------------|
a--x--2--2--x--x--x--x--5--5--x--x--x--x-----------------|
d--x--0--0--x--x--x--x--3--3--x--x--x--x-----------------|

d--15------------------------------------------------|
g--17^\----------------------------------------------|
c----------------------------------------------------|
f--------------2--2--x--x--x--x--5--5--x--x--x--x--7-|
a--------------2--2--x--x--x--x--5--5--x--x--x--x--7-|
d--------------0--0--x--x--x--x--3--3--x--x--x--x--5-|

                      (...she turns on the radio...)
d----------------------------------------------------------|
g----------------------------------------------------------|
c----------------------------------------------------------|
f--7--x--x--x--x--7--7--x--x--x--x--4--4--4--4--4--4--4--4-|
a--7--x--x--x--x--7--7--x--x--x--x--4--4--4--4--4--4--4--4-|
d--5--x--x--x--x--5--5--x--x--x--x--2--2--2--2--2--2--2--2-|
CHORUS - play fig A over it
d----------------------------------------------------|
g----------------------------------------------------|
c----------------------------------------------------|
f--7--7--7--7--7\-------------------------7--7-----7-|
a--7--7--7--7--7\--2--2---2--2--2-----2---5--5-----5-|
d--5--5--5--5--5\--0--0---0--0--0-----0--------------|

d---------------------------------------------------------|
g---------------------------------------------------------|
c---------------------------------------------------------|
f--7--7-----7---------------------------------------------|
a--5--5-----5----7--7--5-----7-----5--7--5--2--2-----2--2-|
d----------------5--5--3-----5-----3--5--3--0--0-----0--0-|

d------------------------------------------------------|
g------------------------------------------------------|
c------------------------------------------------------|
f------------7--7-----7--7--7-----7--------------------|
a--2-----2---5--5-----5--5--5-----5------7-----6-----5-|
d--0-----0-------------------------------5-----4-----3-|

d--------------------------------------------------|
g--------------------------------------------------|
c--------------------------------------------------|
f---------------------------7--7-----7--7--7-----7-|
a--2--2-----2--2--2-----2---5--5-----5--5--5-----5-|
d--0--0-----0--0--0-----0--------------------------|

d-----------------------------------------------------------|
g-----------------------------------------------------------|
c-----------------------------------------------------------|
f------------------------------------------------------7--7-|
a--7--7--5-----7-----5--7--5--2--2-----2--2--2-----2---5--5-|
d--5--5--3-----5-----3--5--3--0--0-----0--0--0-----0--------|

d--------------------------------------------------|
g--------------------------------------------------|
c--------------------------------------------------|
f--7--7--7-----7-----------------------------------|
a--5--5--5-----5-----7-----6-----5\---7-----6----5-|
d--------------------5-----4-----3\---5-----4----3-|

Play fig A over this
d--------------------------------------------------------|
g--------------------------------------------------------|
c--11^---------------------------------------------------|
f---------2--2--x--x--x--x--5--5--x--x--x--x--7--7--x--x-|
a---------2--2--x--x--x--x--5--5--x--x--x--x--7--7--x--x-|
d---------0--0--x--x--x--x--3--3--x--x--x--x--5--5--x--x-|

d----------------------------------------------------------|
g----------------------------------------------------------|
c----------------------------------------------------------|
f--x--x--7--7--x--x--x--x--2--2--x--x--x--x--5--5--x--x--x-|
a--x--x--7--7--x--x--x--x--2--2--x--x--x--x--5--5--x--x--x-|
d--x--x--5--5--x--x--x--x--0--0--x--x--x--x--3--3--x--x--x-|

VERSE
d----------------------------------------------------------|
g----------------------------------------------------------|
c----------------------------------------------------------|
f--x--7--7--x--x--x--x--7--7--x--x--x--x--2--2--x--x--x--x-|
a--x--7--7--x--x--x--x--7--7--x--x--x--x--2--2--x--x--x--x-|
d--x--5--5--x--x--x--x--5--5--x--x--x--x--0--0--x--x--x--x-|

d-------------------------------------------------------|
g-------------------------------------------------------|
c-------------------------------------------------------|
f--5--5--x--x--x--x--7--7--x--x--x--x--7--7--x--x--x--x-|
a--5--5--x--x--x--x--7--7--x--x--x--x--7--7--x--x--x--x-|
d--3--3--x--x--x--x--5--5--x--x--x--x--5--5--x--x--x--x-|

d--------------------------------------------------------------|
g------------------------------------------19------19------19--|
c------------------------------------------21^-----21^-----21^-|
f--2--2--x--x--x--x--5--5--x--x--x--x--------------------------|
a--2--2--x--x--x--x--5--5--x--x--x--x--------------------------|
d--0--0--x--x--x--x--3--3--x--x--x--x--------------------------|
                    (..she turns on the radio...)
d----------------------------------------------------|
g--19---19-------------------------------------------|
c--21^--21-------------------------------------------|
f-------------4--4--4--4--4--4--4--4--7--7--7--7--7\-|
a-------------4--4--4--4--4--4--4--4--7--7--7--7--7\-|
d-------------2--2--2--2--2--2--2--2--5--5--5--5--5\-|

CHORUS play fig A over it
d----------------------------------------------------|
g----------------------------------------------------|
c----------------------------------------------------|
f---------------------------7--7-----7--7--7---7-----|
a--2--2-----2--2--2----2----5--5-----5--5--5---5---7-|
d--0--0-----0--0--0----0---------------------------5-|

d----------------------------------------------------------|
g----------------------------------------------------------|
c----------------------------------------------------------|
f----------------------------------------------------7--7--|
a--7--5-----7-----5--7--5--2--2-----2--2--2-----2----5--5--|
d--5--3-----5-----3--5--3--0--0-----0--0--0-----0----------|
d----------------------------------------------------------|
g----------------------------------------------------------|
c----------------------------------------------------------|
f--7--7--7-----7-------------------------------------------|
a--5--5--5-----5-----7-----6-----5-----2--2---2--2--2------|
d--------------------5-----4-----3-----0--0---0--0--0------|
[ Tab from: http://www.guitartabs.cc/tabs/m/motley_crue/she_needs_rock_n_roll_tab.html ]
d---------------------------------------------------------|
g---------------------------------------------------------|
c---------------------------------------------------------|
f------7--7-----7--7--7-----7-----------------------------|
a--2---5--5-----5--5--5-----5-----7--7--5-----7-----5--7--|
d--0------------------------------5--5--3-----5-----3--5--|
d---------------------------------------------------------|
g---------------------------------------------------------|
c---------------------------------------------------------|
f-------------------------------7--7-----7--7--7-----7----|
a--5--2--2-----2--2--2-----2----5--5-----5--5--5-----5----|
d--3--0--0-----0--0--0-----0------------------------------|

d-------------------------------------------------------|
g-------------------------------------------------------|
c------------------------------------------11^----------|
f--------------------5^---------------------------------|
a--7-----6-----5---------7-----6-----5----------7-----6-|
d--5-----4-----3---------5-----4-----3----------5-----4-|

d------------------------------------|
g------------------------------------|
c----------------------------11^-----|
f------5^--------------------------2-|
a--5--------7-----6-----5----------2-|
d--3--------5-----4-----3----------0-|

d-------------------------------------|
g-------------------------------------|
c-------------------------------------|
f--9------7-------6--------9--------7-|
a--7------5-------4--------7--------5-|
d-------------------------------------|

d------------------------------------------------|
g------------------------------------------------|
c------------------------------------------------|
f--6---------------------------------------------|
a--4------4--4--4--4--4--4--4--4---7--7--7--7--7-|
d---------2--2--2--2--2--2--2--2---5--5--5--5--5-|

SOLO
d---------------------------------12----------|
g--14^--14--12--15----12--14--15-------15--14-|
c---------------------------------------------|
f---------------------------------------------|
a---------------------------------------------|
d---------------------------------------------|

d-------------------------------------------------------|
g--12-----12-----12-----12------------------14^--14--12-|
c------15-----15-----15-----15--14--13--12--------------|
f-------------------------------------------------------|
a-------------------------------------------------------|
d-------------------------------------------------------|

d---------------------------------------------------------------|
g--14----------------------------------------------------15--14-|
c------12----12--11-----9-----14--13--12------------------------|
f-------------------------------------------14--13--12----------|
a---------------------------------------------------------------|
d---------------------------------------------------------------|

d---------------------------------------------------------------|
g--13-----------------------------------------------------------|
c------14--13--12~~~--7--8--8--9--9--10--10--11--11--12--12^-12-|
f---------------------------------------------------------------|
a---------------------------------------------------------------|
d---------------------------------------------------------------|

d--------------------------------------------------------12-|
g-----7--8--8--9--9--10--10--11--11--12--9---------14h15----|
c--9----------------------------------------9--12-----------|
f-----------------------------------------------------------|
a-----------------------------------------------------------|
d-----------------------------------------------------------|

d-----------------------------12---------------------------12-|
g--15--14--12------12--14h15-----15--14--12---------14h15-----|
c--------------15----------------------------15~~~------------|
f-------------------------------------------------------------|
a-------------------------------------------------------------|
d-------------------------------------------------------------|

d-------------------------------------------------|
g--15--14--12------12--14h15--14----12------12----|
c--------------15----------------15-----14-----12-|
f-------------------------------------------------|
a-------------------------------------------------|
d-------------------------------------------------|

       (...she turns on the radio...)
d-----------------------------------------|
g-----------------------------------------|
c-----------------------------------------|
f--4--4--4--4--4--4--4--4--7--7--7--7--7\-|
a--4--4--4--4--4--4--4--4--7--7--7--7--7\-|
d--2--2--2--2--2--2--2--2--5--5--5--5--5\-|

CHORUS play fig A over it
d-----------------------------------------------------|
g-----------------------------------------------------|
c-----------------------------------------------------|
f---------------------------7--7-----7--7--7-----7----|
a--2--2-----2--2--2-----2---5--5-----5--5--5-----5--7-|
d--0--0-----0--0--0-----0---------------------------5-|

d---------------------------------------------------------|
g---------------------------------------------------------|
c---------------------------------------------------------|
f----------------------------------------------------7--7-|
a--7--5-----7-----5--7--5--2--2-----2--2--2-----2----5--5-|
d--5--3-----5-----3--5--3--0--0-----0--0--0-----0---------|

d-----------------------------------------------------|
g-----------------------------------------------------|
c-----------------------------------------------------|
f--7--7--7-----7--------------------------------------|
a--5--5--5-----5-----7-----6-----5---2--2-----2--2--2-|
d--------------------5-----4-----3---0--0-----0--0--0-|

d-------------------------------------------------------|
g-------------------------------------------------------|
c-------------------------------------------------------|
f------7--7-----7--7--7-----7---------------------------|
a--2---5--5-----5--5--5-----5----7--7--5-----7-----5--7-|
d--0-----------------------------5--5--3-----5-----3--5-|

d------------------------------------------------------|
g------------------------------------------------------|
c------------------------------------------------------|
f-------------------------------7--7-----7--7--7-----7-|
a--5--2--2-----2--2--2-----2----5--5-----5--5--5-----5-|
d--3--0--0-----0--0--0-----0---------------------------|

d-----------------------------------------------------|
g-----------------------------------------------------|
c----------------------------------11^----------------|
f-----------------------------------------------------|
a--7-----6-----5----7-----6---5---------2--2-----2--2-|
d--5-----4-----3----5-----4---3---------0--0-----0--0-|

d---------------------------------------------------------|
g---------------------------------------------------------|
c----------------------------------------14-----13-----12-|
f-------------7--7-----7--7--7-----7----------------------|
a--2-----2----5--5-----5--5--5-----5----------------------|
d--0-----0------------------------------------------------|

d-----------------------------------------------------|
g-----------------------------------------------------|
c-----------------------------------------------------|
f---------------------------7--7-----7--7--7-----7----|
a--2--2-----2--2--2-----2---5--5-----5--5--5-----5----|
d--0--0-----0--0--0-----0-----------------------------|
d-----------------------------------------------------|
g-----------------------------------------------------|
c--14-----13-----12-----------------------------------|
f-----------------------------------------------7--7--|
a-----------------------2--2-----2--2--2-----2--5--5--|
d-----------------------0--0-----0--0--0-----0--------|

d----------------------------------------------------------|
g----------------------------------------------------------|
c---------------------14-----13-----12---------------------|
f--7--7--7-----7-------------------------------------------|
a--5--5--5-----5--------------------------2--2-----2--2--2-|
d-----------------------------------------0--0-----0--0--0-|

d----------------------------------------------------|
g----------------------------------------------------|
c-----------------------------------14-----13-----12-|
f---------7--7---7--7--7-----7-----------------------|
a--2------5--5---5--5--5-----5-----------------------|
d--0-------------------------------------------------|

d-------------------------18------17------15--|
g-------------------------20^-----19^-----17^-|
c--14-----13-----12---------------------------|
f---------------------------------------------|
a---------------------------------------------|
d---------------------------------------------|

d--18---17----20---------|
g--20^--19^---22^\-------|
c------------------------|
f----------------------2-|
a----------------------2-|
d----------------------0-|

with delay repeat and fade
d---------------------|
g---------------------|
c---------------------|
f--9--------7-------6-|
a--7--------5-------4-|
d---------------------|
Comments