Motley Crue - She Goes Down Chords & Tabs

 

She Goes Down Chords & Tabs

Motley Crue Chords & Tabs

Version: 1 Type: Tab 0 ratings
1 star 2 stars 3 stars 4 stars 5 stars
comments

She Goes Down Tab

Band- Motley Crue
Song- She Goes Down

D tuning- DGCFAD

h- hammer on
p- pull off
\\\\/- arm down
ph- pinch harmonic
\\\\- slide down
/- slide up
(#)- note in parenthesis is a ghost note

intro
d----------------------------------------------|
g----------------------------------------------|
c------------------------2-2-------------------|
f--2-2--4p2p0------------2-2--4p2p0------------|
a--2-2---------4p2p0-----0-0---------4p2p0-----|
d--0-0----------------3---------------------3--|

d---------------------------------------------------|
g---------------------------------------------------|
c------------------------2-2-------------------2--2-|
f--2-2--4p2p0------------2-2--4p2p0------------2--2-|
a--2-2---------4p2p0-----0-0---------4p2p0-----0--0-|
d--0-0----------------3---------------------3-------|

                              gtr 2 comes in here
d-----------------------------3-4--3-4-|
g-----------------------------2-3--2-3-|
c-----------------------------3-4--3-4-|
f-------------2------------2-----------|
a--------------------2--4--2-----------|
d--3-4--0-3-4---3--4-------0-----------|

gtr 2
d--14~--14-14-14-12--------------------12-12-12-14-14\\\\-----12-------14--------|
g--------------------14-12-12----12-14-------------------------------------------|
c-----------------------------13------------------------/13----13/14----14/15----|
f--------------------------------------------------------------------------------|
a--------------------------------------------------------------------------------|
d--------------------------------------------------------------------------------|

d--15-------16-16-16----17-------19-------20-------21-21-21-(21)-|
g-----15/16------------------------------------------------------|
c--------------------18----18/19----19/20----20/21---------------|
f----------------------------------------------------------------|
a----------------------------------------------------------------|
d----------------------------------------------------------------|

played under gtr 2s soloing
d--4--------------------3-4--3-4--4----------------------------------|
g--3--------------------2-3--2-3--3----------------------------------|
c--4--------------------3-4--3-4--4--------------------------------4-|
f-----------------------------------------------------2-4----2-4---5-|
a-----2-4---2-4----------------------2-4----2-4-----0-----0------0-0-|
d---------0-----3-0--0--------------------0-----3-4------------------|

verse
d---------------------------------------------------------------------|
g---------------------------------------------------------------------|
c--(4)---2----------------------------------------------------------4-|
f--(5)---4---2---------2-4---2-4-------2-4---2-4--------2-4---2-4---5-|
a--(0)-0-0-0---3-4-0-0-----0-----3-0-0-----0------3-0-0-----0-----0-0-|
d---------------------------------------------------------------------|

gtr 2
d----------------------------------------------------|
g----------------------12-12-10-10-10-12-12-12-(12)--|
c----------------------------------------------------|
f----------------------------------------------------|
a----------------------------------------------------|
d----------------------------------------------------|

d---------------------------------------------------------3-4--3-4-|
g---------------------------------------------------------2-3--2-3-|
c--(4)---2------------------------------------------------3-4--3-4-|
f--(5)---4---2---------2-4---2-4-------2-4---2-4-------------------|
a--(0)-0-0-0---3-4-0-0-----0-----3-0-0-----0-----------------------|
d-------------------------------------------------3-4--0-----------|

gtr 2
d------------------------------------19-19-17-17-------------------|
g------------------------------------------------19-19-17-17-19-19-|
c------------------------------------------------------------------|
f------------------------------------------------------------------|
a------------------------------------------------------------------|
d------------------------------------------------------------------|

d-------------------3-4--3-4-(4)-|
g-------------------2-3--2-3-(3)-|
c-------------------3-4--3-4-(4)-|
f--------------------------------|
a--2-4---2-4---------------------|
d------0-----3-0-0---------------|
[ Tab from: http://www.guitartabs.cc/tabs/m/motley_crue/she_goes_down_tab.html ]
gtr 2
                  ph
d--------------------------------------|
g----------12-12-----------------------|
c-----9-9--9--9---9-(9)----------------|
f-----9-9------------------------------|
a--------------------------------------|
d-----------------------------0-\\\\/--|

chorus
d-----------------------------0--------------------------------------|
g-----------------------------0--------------------------------------|
c-----------------------------------------------2-(2)----------------|
f------------4p2p0----------2----4p2p0----------2-(2)-4p2p0----------|
a--2-4----2--------4p2p0----2----------4p2p0----0-(0)--------4p2p0---|
d------0-----------------3--0----------------3---------------------3-|

d----0-----------------------------------------------|
g----0-----------------------------------------------|
c----------------------2-(2)-------------------------|
f--2----4p2p0----------2-(2)------------2----------2-|
a--2----------4p2p0----0-(0)------------------2-4--2-|
d--0----------------3--------3-4-0-3-4----3-4------0-|

gtr 2
d-------------------------------------------14-14-14-|
g----------------------------------------------------|
c----------------------------------------------------|
f----------------------------------------------------|
a----------------------------------------------------|
d----------------------------------------------------|

verse
d-----------------------------------------------------------------|
g-----------------------------------------------------------------|
c----2----------------------------------------------------------4-|
f----4---2---------2-4---2-4-------2-4---2-4--------2-4---2-4---5-|
a--0-0-0---3-4-0-0-----0-----3-0-0-----0------3-0-0-----0-----0-0-|
d-----------------------------------------------------------------|

gtr 2
d----------------------------------------------------|
g----------------------12-12-10-10-10-12-12-12-(12)--|
c----------------------------------------------------|
f----------------------------------------------------|
a----------------------------------------------------|
d----------------------------------------------------|

d---------------------------------------------------------3-4--3-4-|
g---------------------------------------------------------2-3--2-3-|
c--(4)---2------------------------------------------------3-4--3-4-|
f--(5)---4---2---------2-4---2-4-------2-4---2-4-------------------|
a--(0)-0-0-0---3-4-0-0-----0-----3-0-0-----0-----------------------|
d-------------------------------------------------3-4--0-----------|

gtr 2
d------------------------------------19-19-17-17-------------------|
g------------------------------------------------19-19-17-17-19-19-|
c------------------------------------------------------------------|
f------------------------------------------------------------------|
a------------------------------------------------------------------|
d------------------------------------------------------------------|

d-------------------3-4--3-4-(4)-|
g-------------------2-3--2-3-(3)-|
c-------------------3-4--3-4-(4)-|
f--------------------------------|
a--2-4---2-4---------------------|
d------0-----3-0-0---------------|

gtr 2
                  ph
d--------------------------------------|
g----------12-12-----------------------|
c-----9-9--9--9---9-(9)----------------|
f-----9-9------------------------------|
a--------------------------------------|
d-----------------------------0-\\\\/--|

chorus
d-----------------------------0--------------------------------------|
g-----------------------------0--------------------------------------|
c-----------------------------------------------2-(2)----------------|
f------------4p2p0----------2----4p2p0----------2-(2)-4p2p0----------|
a--2-4----2--------4p2p0----2----------4p2p0----0-(0)--------4p2p0---|
d------0-----------------3--0----------------3---------------------3-|

outro/ solo
d----0-----------------------------------------0----------------|
g----0-----------------------------------------0----------------|
c----------------------2-(2)-----------------2------------------|
f--2----4p2p0----------2-(2)--4p2p0----------2----4p2p0---------|
a--2----------4p2p0----0-(0)--------4p2p0----0----------4p2p0---|
d--0----------------3---------------------3-------------------3-|

gtr 2
d---------------------------------------------------------------------|
g---------------------------------------------12---12-12-------12-----|
c------------------------------------------------14------13-----------|
f-----------------------------------------------------------14-----14-|
a---------------------------------------------------------------------|
d---------------------------------------------------------------------|
Comments