Motley Crue - Same Old Situation Chords & Tabs

 

Same Old Situation Chords & Tabs

Motley Crue Chords & Tabs

Version: 4 Type: Tab 0 ratings
1 star 2 stars 3 stars 4 stars 5 stars
comments

Same Old Situation Tab

same ol' situation (S.O.S)
motley crue

** havent finished this one yet so dont rate it. just wanted to post what i had so far. 
more to come** -crue

gtr 1- x4
d--5-5-5---5-5-5-5-5---5-5-5---0-0-0-0-0-|
g--5-5-5---4-4-4-4-4---3-3-3---2-2-2-2-2-|
c--2-2-2---2-2-2-2-2---2-2-2---2-2-2-2-2-|
f----------------------------------------|
a----------------------------------------|
d----------------------------------------|

gtr 2- x4, play everytime gtr 1 starts over
d----
g----
c--2-
f--2-
a--0-
d----

verse

gtr 1,2- x2
d----------------------|
g----------------------|
c--2--2-2---2----------|
f--2--2-2---2---2--2-2-|
a--0--0-0---0---2--2-2-|
d---------------0--0-0-|

gtr 1- x2
d----------------------------------------------------|
g----------------------------------------------------|
c--2------------2------------------------------------|
f--2--4--5--4---2--4--5--4---2------------2----------|
a--0--0--0--0---0--0--0--0---2--4--5--4---2--4--5--4-|
d----------------------------0--0--0--0---0--0--0--0-|

gtr 2- x2
d----------------------|
g----------------------|
c--2--2-2---2----------|
f--2--2-2---2---2--2-2-|
a--0--0-0---0---2--2-2-|
d---------------0--0-0-|

pre-chorus
gtr 1
d----------------------------------------------------------------------|
g--------------------------------------------------------------4-----4-|
c-----2-2-----7-7----------7------7-----------7-6-5-4--4-4-----4-----4-|
f--2--2-2--2--7-7--7-------7------7--7-7------7-6-5-4--4-4-5-6---5-6---|
a--2--0-0--2-------7--8-9-----8-9----7-7--8-9--------------------------|
d--0-------0-----------------------------------------------------------|

gtr 2
d-----------------------------------------------------|
g-----------------------------------------------------|
c--2-2---------7-7----------------------------7-6-5-4-|
f--2-2---------7-7----------------------------7-6-5-4-|
a--0-0--4-5-4--5-5----------------------------5-4-3-2-|
d-------0-0-0-----------------------------------------|

chorus
gtr 1
d------------------------------------------------------|
g------------------------------------------------------|
c-------------2-2-2--4p2-4-4-4-2---2--2-2--4p2-4-4-4-2-|
f--2--2--2-2--2-2-2--4p2-4-4-4-2---2--2-2--4p2-4-4-4-2-|
a--2--2--2-2--0-0-0----------------0--0-0--------------|
d--0--0--0-0-------------------------------------------|

gtr 2
d------------|
g------------|
c------------|
f--2--2--2-2-|
a--2--2--2-2-|
d--0--0--0-0-|

gtr 1
d------------------------------------------------------------------------|
g------------------------------------------------------------------------|
c----------------------------------2-2-2--4p2-4-4-4-2--2-2-2-4p2-4-4-4-2-|
f----------------------------------2-2-2--4p2-4-4-4-2--2-2-2-4p2-4-4-4-2-|
a--2-2-2--4--5--4--2-2-2--4--5--4--0-0-0---------------0-0-0-------------|
d--0-0-0--0--0--0--0-0-0--0--0--0----------------------------------------|

gtr 2
d--------------------------------|
g---------0-0-0------------0-0-0-|
c--9-9-9-------------------------|
f--9-9-9-------------------------|
a--7-7-7-------------------------|
d--------------------------------|

gtr 1                               "i say no, no, no..."
d------------------------------------------------------------------------|
g--------------------------------------8p7----10p8-7------10-8p7--8p7----|
c----------------------------------7-7-----7---------7--7--------------7-|
f----------------------------------7-7-----------------------------------|
a--2-2-2--4--5--4--2-2-2--4--5--4----------------------------------------|
d--0-0-0--0--0--0--0-0-0--0--0--0----------------------------------------|
[ Tab from: http://www.guitartabs.cc/tabs/m/motley_crue/same_old_situation_tab_ver_4.html ]
gtr 2
d------------------------------------------------------------------------|
g--0-0-0------------0-0-0------------------------------------------------|
c----------------------------------7-7--------7-----7------------7-6-5-4-|
f----------------------------------7-7--7-----7-----7--7-7-------7-6-5-4-|
a---------------------------------------7-8-9---8-9----7-7--8-9----------|
d------------------------------------------------------------------------|

gtr 1                 nh
d------------------------|
g-------7-5p4--5p4----5^-|
c--4-4-------------4-----|
f--4-4-------------------|
a------------------------|
d------------------------|

gtr 2
d------------------------|
g------------------------|
c--4-4-------4--------4--|
f--4-4-------4--------4--|
a-------5--6----5--6--2--|
d------------------------|

gtr 1- x4
d--5-5-5---5-5-5-5-5---5-5-5---0-0-0-0-0----|
g--5-5-5---4-4-4-4-4---3-3-3---2-2-2-2-2--x-|
c--2-2-2---2-2-2-2-2---2-2-2---2-2-2-2-2----|
f-------------------------------------------|
a-------------------------------------------|
d-------------------------------------------|

gtr 2- x4, play everytime gtr 1 starts over
d-------------------------------------------|
g-------------------------------------------|
c--2----------------------------------------|
f--2--------------------------------------x-|
a--0----------------------------------------|
d-------------------------------------------|

verse
gtr 1,2- x2
d----------------------|
g----------------------|
c--2--2-2---2----------|
f--2--2-2---2---2--2-2-|
a--0--0-0---0---2--2-2-|
d---------------0--0-0-|

gtr 1- x2
d----------------------------------------------------------|
g----------------------------------------------------------|
c--2------------2-------------------------------------7-/9-|
f--2--4--5--4---2--4--5--4---2------------2-----------7-/9-|
a--0--0--0--0---0--0--0--0---2--4--5--4---2--4--5--4--5-/7-|
d----------------------------0--0--0--0---0--0--0--0-------|

gtr 2- x2
d-------------------------|
g-------------------------|
c--2--2-2---2-----------7-|
f--2--2-2---2---2--2-2--7-|
a--0--0-0---0---2--2-2----|
d---------------0--0-0----|


chorus
gtr 1
d------------------------------------------------------|
g------------------------------------------------------|
c-------------2-2-2--4p2-4-4-4-2---2--2-2--4p2-4-4-4-2-|
f--2--2--2-2--2-2-2--4p2-4-4-4-2---2--2-2--4p2-4-4-4-2-|
a--2--2--2-2--0-0-0----------------0--0-0--------------|
d--0--0--0-0-------------------------------------------|

gtr 2
d------------|
g------------|
c------------|
f--2--2--2-2-|
a--2--2--2-2-|
d--0--0--0-0-|

gtr 1                               "i say no, no, no..."
d----------------------------------------------------------------------------|
g--------------------------------------8-7---10-8-7------10-8p7--8p7---------|
c----------------------------------7-7--------------7--7--------------7--4-4-|
f----------------------------------7-7-----------------------------------4-4-|
a--2-2-2--4--5--4--2-2-2--4--5--4--------------------------------------------|
d--0-0-0--0--0--0--0-0-0--0--0--0--------------------------------------------|

gtr 2
d------------------------------------------------------------------------|
g--0-0-0------------0-0-0------------------------------------------------|
c----------------------------------7-7--------7-----7------------7-6-5-4-|
f----------------------------------7-7--7-----7-----7--7-7-------7-6-5-4-|
a---------------------------------------7-8-9---8-9----7-7--8-9----------|
d------------------------------------------------------------------------|

gtr 1
d--------------------|
g--5-4--7-4----------|
c------------4/16~~^-|
f--------------------|
a--------------------|
d--------------------|

gtr 2
d----------------------------|
g----------------------------|
c--4-4------4------4-------4-|
f--4-4------4------4-------4-|
a-------5-6----5-6----5-6--2-|
d----------------------------|

        __
      =/ /
     =/ /
    =/_/
     |_\
     |_|
     |_|  any questions or corrections
     |_|   email me, valkeyrie3@hotmail.com -Crue
     |_|
     |_|
     |_|
  /\ |_|
 / | |_|  _
 \  \|_| ( \
  |     \/ /
  | [===] |
 /  [===]/|
 |   ___/oo\
 \  |---| o )
  \________/
Comments