Motley Crue - Same Old Situation Chords & Tabs

 

Same Old Situation Chords & Tabs

Motley Crue Chords & Tabs

Version: 3 Type: Tab 0 ratings
1 star 2 stars 3 stars 4 stars 5 stars
comments

Same Old Situation Tab

                                 Motley Crue
                              Same Old Situation

Email: ibanez-gnr@hotmail.com
[ Tab from: http://www.guitartabs.cc/tabs/m/motley_crue/same_old_situation_tab_ver_3.html ]
Intro:
|-5-5-5-5-5-5-5-5-5-5-5-5-5-5-5---|
|-5-5-5-5-4-4-4-4-3-3-3-3-2-2-2---|
|---------------------------------|x4
|---------------------------------|
|---------------------------------|
|---------------------------------|

Verse:
|----------------------------------------|
|----------------------------------------|
|-2--2-2--2-----------2------------------|
|-2--2-2--2-2--2-2--2-2------------------|
|-0--0-0--0-2--2-2--2-0------------------|
|-----------0--0-0--0--------------------|

Sounds just like the song.Know one else got it right!
Comments