Motley Crue - Same Old Situation Chords & Tabs

 

Same Old Situation Chords & Tabs

Motley Crue Chords & Tabs

Version: 2 Type: Tab 0 ratings
1 star 2 stars 3 stars 4 stars 5 stars
comments

Same Old Situation Tab

      ------------------------------------------------------------
                same old situation by mötley crüe
      ------------------------------------------------------------

    tabbed by: ruben celius
    e mail: r_celius@hotmail.com


   intro: x4
d|------------------------------------------------|
g|------------------------------------------------|
c|--9-9-9--8-8-8-8-8--7-7-7--6-6-6-6-6------------|
f|------------------------------------------------|
a|------------------------------------------------|
d|------------------------------------------------|
[ Tab from: http://www.guitartabs.cc/tabs/m/motley_crue/same_old_situation_tab_ver_2.html ]
   vers:
d|-----------------------------------------------------------|
g|-----------------------------------------------------------|
c|-----------------------------------------------------------|
f|-----------------------------------------------------------|
a|---7---7--7----7----2---2--2----2----7---7--7----7---------|
d|---5---5--5----5----0---0--0----0----5---5--5----5---------|

  
d|--------------------------------------------------------------|
g|--------------------------------------------------------------|
c|--------------------------------------------------------------|
f|--0-2-3-4--0-2-3-4-0-2-3-4-------------0-1-2---0-1------4-4-4-|
a|-----------------------------5-4-3-2---------------2----2-2-2-|
d|--------------------------------------------------------------|

   ref:
d|-------------------------------------------------------------|
g|----------b7------------b7-----------------------------------|
c|----------b7------------b7-----------------------------------|
f|---2-------------2-------------------------------------------|
a|---0-------------0------------2--2--4--5--4--2--2--4--5--4---|
d|------------------------------0--0--0--0--0--0--0--0--0--0---|
Comments