Motley Crue - Same Ol' Situation Chords & Tabs

 

Same Ol' Situation Chords & Tabs

Motley Crue Chords & Tabs

Version: 1 Type: Tab 1 rating
1 star 2 stars 3 stars 4 stars 5 stars
comments

Same Ol' Situation Tab

##################################################################################
# This file is the author's own work and represents their interpretation of the  #
# song. You may only use this file for private study, scholarship, or research.  #
##################################################################################

Motley Crue

Same ol' Situation (S.O.S.)

D------5--5--5--5--5--5--5--5--|--5--5--5--5--5--5--5--5--|--5--5--5----
A------5--5--5--4--4--4--4--4--|--3--3--3--2--2--2--2--2--|--5--5--5----
F------------------------------|--------------------------|-------------
C------------------------------|--------------------------|-------------
G------------------------------|--------------------------|-------------
D------------------------------|--------------------------|-------------
                                                                        

                                                                        
D---5--5--5--5--5--|--5--5--5--5--5--5--5--5--|--5--5--5--5--5--5--5----
A---4--4--4--4--4--|--3--3--3--2--2--2--2--2--|--5--5--5--4--4--4--4----
F------------------|--------------------------|-------------------------
C------------------|--------------------------|-------------------------
G------------------|--------------------------|-------------------------
D------------------|--------------------------|-------------------------
                                                                        

                                                                        
D---5--|--5--5--5--5--5--5--5--5--|--5--5--5--5--5--5--5--5--|--5--5----
A---4--|--3--3--3--2--2--2--2--2--|--5--5--5--4--4--4--4--4--|--3--3----
F------|--------------------------|--------------------------|----------
C------|--------------------------|--------------------------|----------
G------|--------------------------|--------------------------|----------
D------|--------------------------|--------------------------|----------
                                                                        

                         verse                                          
D---5--5--5--5--5--5--|-----------------|--------------------|----------
A---3--2--2--2--2--2--|-----------------|--------------------|----------
F---------------------|--2--------2--2--|-----2-----------2--|----------
C---------------------|--2--------2--2--|-----2-----------2--|--2-------
G---------------------|--0--------0--0--|-----0-----------0--|--2-------
D---------------------|-----------------|--------------------|--0-------
                                                                        

                                                                        
D------------|-----------------|--------------|-----------------|-------
A------------|-----------------|--------------|-----------------|-------
F------------|-----------------|--2--------2--|--2-----------2--|-------
C---------2--|--2-----------2--|--2--------2--|--2-----------2--|--2----
G---------2--|--2-----------2--|--0--------0--|--0-----------0--|--2----
D---------0--|--0-----------0--|--------------|-----------------|--0----
                                                                        

                                                                        
D---------------|-----------------|--------------------|----------------
A---------------|-----------------|--------------------|----------------
F---------------|-----------------|--2--------2--2-----|--2--------2----
C------------2--|--2-----------2--|--2-----4--2--2--4--|--2-----4--2----
G------------2--|--2-----------2--|--0-----0--0--0-----|--0-----0--0----
D------------0--|--0-----------0--|--------------------|----------------
                                                                        

                                                                        
D---------|--------------|-----------------|--------------------|-------
A---------|--------------|-----------------|--------------------|-------
F---2-----|--------------|-----------------|--2--------2--2-----|--2----
C---2--4--|--2--------2--|--2--------------|--2-----4--2--2--4--|--2----
G---0-----|--2--4--5-----|--2--4--5--2--4--|--0-----0--0--0-----|--0----
D---------|--0-----------|--0--------------|--------------------|-------
                                                                        

                                                                        
D------------------|--------------|-----------------|-------------------
A------------------|--------------|-----------------|--3----------------
F---------2--2-----|--------------|-----------------|--2----------------
C------4--2--2--4--|--2--------2--|--2--------------|--0--0--3--4--0----
G------0--0--0-----|--2--4--5-----|--2--4--5--2--4--|-------------------
D------------------|--0-----------|--0--------------|-------------------
                                                                        

                                                                        
D---------|-----------------------|--------------------------|----------
A---------|--3--------------------|--------------------------|----------
F---------|--2--------------------|--------------------------|----------
C---3--4--|--0--0--3--4--7--6--5--|--4-----0--1-----0--1--4--|--4--4----
G---------|--------------5--4--3--|--2--2--------2--------2--|--2--2----
D---------|-----------------------|--------------------------|----------
                                                                        

             chorus                                                     
D---------|---------------------------|---------------------------|-----
A---------|---------------------------|---------------------------|-----
F---------|--2-----2--2--2--4^--4--2--|--2-----2--2--2--4^--4--2--|-----
C---4--4--|--2-----2--2--2------------|--2-----2--2--2------------|-----
G---2--2--|--0-----0--0--0------------|--0-----0--0--0------------|-----
D---------|---------------------------|---------------------------|-----
                                                                        

                                                                        
D---------------------|--------------------|----------------------------
A---------------------|--------------------|----------------------------
F---------------------|--------------------|--2-----2--2--2--4^--4------
C---2-----2--2-----2--|--2-----2--2-----2--|--2-----2--2--2-------------
G---2-----4--5-----4--|--2-----4--5-----4--|--0-----0--0--0-------------
D---0-----------------|--0-----------------|----------------------------
                                                                        

                                                                        
D------|---------------------------|--------------------|---------------
A------|---------------------------|--------------------|---------------
F---2--|--2-----2--2--2--4^--4--2--|--------------------|---------------
C------|--2-----2--2--2------------|--2-----2--2-----2--|--2-----2------
G------|--0-----0--0--0------------|--2-----4--5-----4--|--2-----4------
D------|---------------------------|--0-----------------|--0------------
                                                                        

                                                                        
D------------|-----------------------|-----------------------|----------
A------------|--3--------------------|--3--------------------|----------
F------------|--2--------------------|--2--------------------|----------
C---2-----2--|--0--0--3--4--0--3--4--|--0--0--3--4--7--6--5--|--4-------
G---5-----4--|-----------------------|--------------5--4--3--|--2--2----
D------------|-----------------------|-----------------------|----------
                                                                        

                                                                        
D---------------------|--------------|--5--5--5--5--5--5--5--5--|--5----
A---------------------|--------------|--5--5--5--4--4--4--4--4--|--3----
F---------------------|--------------|--------------------------|-------
C---0--1-----0--1--4--|--4--4--4--4--|--------------------------|-------
G---------2--------2--|--2--2--2--2--|--------------------------|-------
D---------------------|--------------|--------------------------|-------
                                                                        

                                                                        
D---5--5--5--5--5--5--5--|--5--5--5--5--5--5--5--5--|--5--5--5--5--5----
A---3--3--2--2--2--2--2--|--5--5--5--4--4--4--4--4--|--3--3--3--2--2----
F------------------------|--------------------------|-------------------
C------------------------|--------------------------|-------------------
G------------------------|--------------------------|-------------------
D------------------------|--------------------------|-------------------
                                                                        

                verse                                                   
D---5--5--5--|-----------------|--------------------|-------------------
A---2--2--2--|-----------------|--------------------|-------------------
F------------|--2--------2--2--|-----2-----------2--|-------------------
C------------|--2--------2--2--|-----2-----------2--|--2-----------2----
G------------|--0--------0--0--|-----0-----------0--|--2-----------2----
D------------|-----------------|--------------------|--0-----------0----
                                                                        

                                                                        
D---|-----------------|--------------------|--------------------|-------
A---|-----------------|--------------------|--------------------|-------
F---|-----------------|--2--------2--2-----|--2--------2--2-----|-------
C---|--2-----------2--|--2-----4--2--2--4--|--2-----4--2--2--4--|--2----
G---|--2-----------2--|--0-----0--0--0-----|--0-----0--0--0-----|--2----
D---|--0-----------0--|--------------------|--------------------|--0----
                                                                        

                                                                        
D------------|-----------------|-----------------------|----------------
A------------|-----------------|--3--------------------|--3-------------
F------------|-----------------|--2--------------------|--2-------------
C---------2--|--2--------------|--0--0--3--4--0--3--4--|--0--0--3--4----
G---4--5-----|--2--4--5--2--4--|-----------------------|----------------
D------------|--0--------------|-----------------------|----------------
                                                                        

                                                          chorus        
D------------|--------------------------|--------------|----------------
A------------|--------------------------|--------------|----------------
F------------|--------------------------|--------------|--2-----2--2----
C---7--6--5--|--4-----0--1-----0--1--4--|--4--4--4--4--|--2-----2--2----
G---5--4--3--|--2--2--------2--------2--|--2--2--2--2--|--0-----0--0----
D------------|--------------------------|--------------|----------------
                                                                        

                                                                        
D----------------|---------------------------|--------------------|-----
A----------------|---------------------------|--------------------|-----
F---2--4^--4--2--|--2-----2--2--2--4^--4--2--|--------------------|-----
C---2------------|--2-----2--2--2------------|--2-----2--2-----2--|-----
G---0------------|--0-----0--0--0------------|--2-----4--5-----4--|-----
D----------------|---------------------------|--0-----------------|-----
                                                                        

                                                                        
D---------------------|---------------------------|---------------------
A---------------------|---------------------------|---------------------
F---------------------|--2-----2--2--2--4^--4--2--|--2--2-----2--2------
C---2-----2--2-----2--|--2-----2--2--2------------|--2--2-----2--2------
G---2-----4--5-----4--|--0-----0--0--0------------|--0--0-----0--0------
D---0-----------------|---------------------------|---------------------
                                                                        

                                                                        
D----------------|---------------------------|--------------------|-----
A----------------|---------------------------|--------------------|-----
F---2--4^--4--2--|--2-----2--2--2--4^--4--2--|--------------------|-----
C---2------------|--2-----2--2--2------------|--2-----2--2-----2--|-----
G---0------------|--0-----0--0--0------------|--2-----4--5-----4--|-----
D----------------|---------------------------|--0-----------------|-----
                                                                        

                                                                        
D---------------------|------------------------|------------------------
A---------------------|------------------------|------------------------
F---------------------|-----2--2--2--4^--4--2--|------------------------
C---2-----2--2-----2--|-----2--2--2------------|--2-----2--2-----2------
G---2-----4--5-----4--|-----0--0--0------------|--2-----4--5-----4------
D---0-----------------|------------------------|--0---------------------
                                                                        
[ Tab from: http://www.guitartabs.cc/tabs/m/motley_crue/same_ol_situation_tab.html ]
                                                                        
D---|--------------------|---------------------------|------------------
A---|--------------------|---------------------------|------------------
F---|--------------------|--2-----2--2--2--4^--4--2--|--2-----2--2------
C---|--2-----2--2-----2--|--2-----2--2--2------------|--2-----2--2------
G---|--2-----4--5-----4--|--0-----0--0--0------------|--0-----0--0------
D---|--0-----------------|---------------------------|------------------
                                                                        

                                                                        
D----------------|--------------------|--------------------|------------
A----------------|--------------------|--------------------|--3---------
F---2--4^--4--2--|--------------------|--------------------|--2---------
C---2------------|--2-----2--2-----2--|--2-----2--2-----2--|--0--0------
G---0------------|--2-----4--5-----4--|--2-----4--5-----4--|------------
D----------------|--0-----------------|--0-----------------|------------
                                                                        

                                                                        
D------------------|-----------------------|----------------------------
A------------------|--3--------------------|----------------------------
F------------------|--2--------------------|----------------------------
C---3--4--0--3--4--|--0--0--3--4--7--6--5--|--4-----0--1-----0--1--4----
G------------------|--------------5--4--3--|--2--2--------2--------2----
D------------------|-----------------------|----------------------------
                                                                        

                                                                        
D---|--------------|-----5--5--5--5--5--5--5--5--|--5--5--5--5--5--5----
A---|--------------|-----5--5--5--4--4--4--4--4--|--3--3--3--2--2--2----
F---|--------------|-----------------------------|----------------------
C---|--4--4--4--4--|-----------------------------|----------------------
G---|--2--2--2--2--|-----------------------------|----------------------
D---|--------------|-----------------------------|----------------------
                                                                        

                                                                        
D---5--5--|-----5--5--5--5--5--5--5--5--|--5--5--5--5--5--5--5--5--|----
A---2--2--|-----5--5--5--4--4--4--4--4--|--3--3--3--2--2--2--2--2--|----
F---------|-----------------------------|--------------------------|----
C---------|-----------------------------|--------------------------|----
G---------|-----------------------------|--------------------------|----
D---------|-----------------------------|--------------------------|----
                                                                        

                                                                        
D------5--5--5--5--5--5--5--5--|--5--5--5--5--5--5--5--5--|-----5--5----
A------5--5--5--4--4--4--4--4--|--3--3--3--2--2--2--2--2--|-----5--5----
F------------------------------|--------------------------|-------------
C------------------------------|--------------------------|-------------
G------------------------------|--------------------------|-------------
D------------------------------|--------------------------|-------------
                                                                        

                                                    solo                
D---5--5--5--5--5--5--|--5--5--5--5--5--5--5--5--|----------------------
A---5--4--4--4--4--4--|--3--3--3--2--2--2--2--2--|----------------------
F---------------------|--------------------------|----------------------
C---------------------|--------------------------|----------------------
G---------------------|--------------------------|-----16^-----16^------
D---------------------|--------------------------|----------------------
                                                                        

                                                                        
D---------------------|------12------14------15------12------12---------
A---------------------|--12------12------12------12------12------12-----
F---------------------|-------------------------------------------------
C---------------------|-------------------------------------------------
G---16^--16^--16^-----|-------------------------------------------------
D---------------------|-------------------------------------------------
                                                                        

                                                                        
D---14------15------12------12------14------15------12------12----------
A-------12------12------12------12------12------12------12------12------
F-----------------------------------------------------------------------
C-----------------------------------------------------------------------
G-----------------------------------------------------------------------
D-----------------------------------------------------------------------
                                                                        

                                                                        
D---14--------------|---------------------------------------------------
A-------12--12--12--|--7^-----7^--5--7^--5------------------------------
F-------------------|--7------7---5--7---5-----7--5-----5---------------
C-------------------|--------------------------------7------------------
G-------------------|---------------------------------------------------
D-------------------|---------------------------------------------------
                                                                        

                                                                        
D---|-------------------------------------------------------------------
A---|--15^-----15--12---------------------------------------------------
F---|------------------15p14p12h14p12h14--12--14--12--14--14--14--12----
C---|-------------------------------------------------------------------
G---|-------------------------------------------------------------------
D---|-------------------------------------------------------------------
                                                                        

                                                                p/h     
D---------------------------------------------------------7--|----------
A-----------------------10--12^--12--10------10--10--12^-----|----------
F-------------------11-------------------11------------------|--7^------
C---14--12--14-----------------------------------------------|----------
G---------------14-------------------------------------------|----------
D------------------------------------------------------------|----------
                                                                        

       p/h       p/h    p/h                         verse               
D------------------------------|-----------------|-----------------|----
A------------------------------|-----------------|-----------------|----
F------7^--------7^-----7^-----|--2--------------|--2--------2--2--|----
C---9------9---------9------9--|--2--------------|--2--------2--2--|----
G------------------------------|--0--------------|--0--------0--0--|----
D------------------------------|-----------------|-----------------|----
                                                                        

                                                             verse      
D---------------------|-----------------|-----------------|-------------
A---------------------|-----------------|-----------------|-------------
F------2-----------2--|-----------------|-----------------|--2----------
C------2-----------2--|--2-----------2--|--2-----------2--|--2----------
G------0-----------0--|--2-----------2--|--2-----------2--|--0----------
D---------------------|--0-----------0--|--0-----------0--|-------------
                                                                        

                                                                        
D---------|--------------------|-----------------|-----------------|----
A---------|--------------------|-----------------|-----------------|----
F---2--2--|-----2-----------2--|-----------------|-----------------|----
C---2--2--|-----2-----------2--|--2-----------2--|--2-----------2--|----
G---0--0--|-----0-----------0--|--2-----------2--|--2-----------2--|----
D---------|--------------------|--0-----------0--|--0-----------0--|----
                                                                        

                                                                        
D------------------------------|-----------------|----------------------
A------------------------------|-----------------|----------------------
F---7--7--------------7--6--5--|--4--------------|--2-----2--2--2--4----
C---7--7--------------7--6--5--|--4--------------|--2-----2--2--2-------
G---5--5--------------5--4--3--|--2--------------|--0-----0--0--0-------
D------------------------------|-----------------|----------------------
                                                                        

                                                                        
D------------|---------------------------|--------------------|---------
A------------|---------------------------|--------------------|---------
F---^--4--2--|--2-----2--2--2--4^--4--2--|--------------------|---------
C------------|--2-----2--2--2------------|--2-----2--2-----2--|--2------
G------------|--0-----0--0--0------------|--2-----4--5-----4--|--2------
D------------|---------------------------|--0-----------------|--0------
                                                                        

                                                                        
D------------------|---------------------------|------------------------
A------------------|---------------------------|------------------------
F------------------|--2-----2--2--2--4^--4--2--|--2-----2--2--2--4------
C------2--2-----2--|--2-----2--2--2------------|--2-----2--2--2---------
G------4--5-----4--|--0-----0--0--0------------|--0-----0--0--0---------
D------------------|---------------------------|------------------------
                                                                        

                                                                        
D------------|--------------------|--------------------|----------------
A------------|--------------------|--------------------|----------------
F---^--4--2--|--------------------|--------------------|--2-----2--2----
C------------|--2-----2--2-----2--|--2-----2--2-----2--|--2-----2--2----
G------------|--2-----4--5-----4--|--2-----4--5-----4--|--0-----0--0----
D------------|--0-----------------|--0-----------------|----------------
                                                                        

                                                                        
D----------------|---------------------------|--------------------|-----
A----------------|---------------------------|--------------------|-----
F---2--4^--4--2--|--2-----2--2--2--4^--4--2--|--------------------|-----
C---2------------|--2-----2--2--2------------|--2-----2--2-----2--|-----
G---0------------|--0-----0--0--0------------|--2-----4--5-----4--|-----
D----------------|---------------------------|--0-----------------|-----
                                                                        

                                                                        
D---------------------|---------------------------|---------------------
A---------------------|---------------------------|---------------------
F---------------------|--2-----2--2--2--4^--4--2--|--2-----2--2--2------
C---2-----2--2-----2--|--2-----2--2--2------------|--2-----2--2--2------
G---2-----4--5-----4--|--0-----0--0--0------------|--0-----0--0--0------
D---0-----------------|---------------------------|---------------------
                                                                        

                                                                        
D-------------|--------------------|--------------------|---------------
A-------------|--------------------|--------------------|---------------
F---4^--4--2--|--------------------|--------------------|---------------
C-------------|--2-----2--2-----2--|--2-----2--2-----2--|--2-----2------
G-------------|--2-----4--5-----4--|--2-----4--5-----4--|--2-----4------
D-------------|--0-----------------|--0-----------------|--0------------
                                                                        

                                                                        
D------------|--------------------|--------------------|----------------
A------------|--------------------|--------------------|----------------
F------------|--------------------|--------------------|----------------
C---2-----2--|--2-----2--2-----2--|--2-----2--2-----2--|--2-----2--2----
G---5-----4--|--2-----4--5-----4--|--2-----4--5-----4--|--2-----4--5----
D------------|--0-----------------|--0-----------------|--0-------------
                                                                        

                                                                        
D---------|--------------------|--------------------|-------------------
A---------|--------------------|--------------------|-------------------
F---------|--------------------|--------------------|--2----------------
C------2--|--2-----2--2-----2--|--2-----2--2-----2--|--2----------------
G------4--|--2-----4--5-----4--|--2-----4--5-----4--|--0----------------
D---------|--0-----------------|--0-----------------|-------------------
                                           
Comments