Motley Crue - Rodeo Chords & Tabs

 

Rodeo Chords & Tabs

Motley Crue Chords & Tabs

Version: 1 Type: Tab 0 ratings
1 star 2 stars 3 stars 4 stars 5 stars
comments

Rodeo Tab

   
rodeo
motley crue

p- pull off
b- bend
\- slide down
~- let ring
\/- bar down
h- hammer on
br- bend release
PM- palm mute
nh- natural harmonic


gtr 1- acoustic, standard tuning EBGDAE
gtr 2- electric, D tuning DAFCGD (mick might be using a slide, not sure yet)

intro
e------------3p1--------------3p1--------------3p1--------------3p1----|
b------1---------0------1---------0------1---------0------1---------0--|
g--------0----------------0----------------0----------------0----------|
d----2-----2----------2-----2----------2-----2----------2-----2--------|
a--3----------------3----------------0----------------0----------------|
e----------------------------------------------------------------------|
                                                                          towards the 
harmonize with this
e------------3p1--------------3p1---------------3p1---------------3p1----|----3-------|
b------1---------0------1---------0-------1---------0-------1---------0--|------1-----|
g--------0----------------0-----------------0-----------------0----------|--------0---|
d----2-----2----------2-----2-----------2-----2-----------2-----2--------|--2-------2-|
a--3----------------3----------------------------------------------------|------------|
e------------------------------------3-----------------3-----------------|------------|

gtr 2
d-------------------------------------------------------------------------|
a-------------------------------------------------------------------------|
f--5~----10br-9--7--5~----10br-9--7--5~----10br-9--7--5~----10br-9--7--4~-|
c-------------------------------------------------------------------------|
g-------------------------------------------------------------------------|
d-------------------------------------------------------------------------|

verse- x2
e------------3p1--------------3p1--------------3p1--------------3p1----|
b------1---------0------1---------0------1---------0------1---------0--|
g--------0----------------0----------------0----------------0----------|
d----2-----2----------2-----2----------2-----2----------2-----2--------|
a--3----------------3----------------0----------------0----------------|
e----------------------------------------------------------------------|
                                                                          towards the 
harmonize with this
e------------3p1--------------3p1---------------3p1---------------3p1----|----3-------|
b------1---------0------1---------0-------1---------0-------1---------0--|------1-----|
g--------0----------------0-----------------0-----------------0----------|--------0---|
d----2-----2----------2-----2-----------2-----2-----------2-----2--------|--2-------2-|
a--3----------------3----------------------------------------------------|------------|
e------------------------------------3-----------------3-----------------|------------|

pre chorus- gtr 1 stops                                PM-----------|
d-------------------------------------------------------------------|
a-------------------------------------------------------------------|
f--\5---7-9-7--9-10--12b-10-9--12b-10-9----5---7-9-7---7-9-7-9-7-9--|
c-------------------------------------------------------------------|
g-------------------------------------------------------------------|
d-------------------------------------------------------------------|

chorus
        PM--------|      PM--------|        PM------------------------------|
d---------------------------------------------------------------------------|
a-------------------------------------------------------------12b-10--------|
f--------------------------------------------------------------------12-10--|
c--7-7--7-7-7-7-7-7--3-3--3-3-3-3-3-3--7-7--7-7-7-7-7-7--3-3----------------|
g--7-7--7-7-7-7-7-7--3-3--3-3-3-3-3-3--7-7--7-7-7-7-7-7--3-3----------------|
d--5-5--5-5-5-5-5-5--1-1--1-1-1-1-1-1--5-5--5-5-5-5-5-5--1-1----------------|

         PM-------|        PM---------------|
d-------------------------------------------|
a-------------------------------------------|
f--------------------------------------12~--|
c--7-7--7-7-7-7-7-7--3-3--3-3-3-3-3-3--12~--|
g--7-7--7-7-7-7-7-7--3-3--3-3-3-3-3-3--10~--|
d--5-5--5-5-5-5-5-5--1-1--1-1-1-1-1-1-------|

intro again
e------------3p1--------------3p1--------------3p1--------------3p1----|
b------1---------0------1---------0------1---------0------1---------0--|
g--------0----------------0----------------0----------------0----------|
d----2-----2----------2-----2----------2-----2----------2-----2--------|
a--3----------------3----------------0----------------0----------------|
e----------------------------------------------------------------------|
                                                                          towards the 
harmonize with this
e------------3p1--------------3p1---------------3p1---------------3p1----|----3-------|
b------1---------0------1---------0-------1---------0-------1---------0--|------1-----|
g--------0----------------0-----------------0-----------------0----------|--------0---|
d----2-----2----------2-----2-----------2-----2-----------2-----2--------|--2-------2-|
a--3----------------3----------------------------------------------------|------------|
e------------------------------------3-----------------3-----------------|------------|
[ Tab from: http://www.guitartabs.cc/tabs/m/motley_crue/rodeo_tab.html ]
gtr 2
d-------------------------------------------------------------------------|
a-------------------------------------------------------------------------|
f--5~----10br-9--7--5~----10br-9--7--5~----10br-9--7--5~----10br-9--7--4~-|
c-------------------------------------------------------------------------|
g-------------------------------------------------------------------------|
d-------------------------------------------------------------------------|

verse- x2
e------------3p1--------------3p1--------------3p1--------------3p1----|
b------1---------0------1---------0------1---------0------1---------0--|
g--------0----------------0----------------0----------------0----------|
d----2-----2----------2-----2----------2-----2----------2-----2--------|
a--3----------------3----------------0----------------0----------------|
e----------------------------------------------------------------------|
                                                                          towards the 
harmonize with this
e------------3p1--------------3p1---------------3p1---------------3p1----|----3-------|
b------1---------0------1---------0-------1---------0-------1---------0--|------1-----|
g--------0----------------0-----------------0-----------------0----------|--------0---|
d----2-----2----------2-----2-----------2-----2-----------2-----2--------|--2-------2-|
a--3----------------3----------------------------------------------------|------------|
e------------------------------------3-----------------3-----------------|------------|

pre chorus- gtr 1 stops                               PM------------|
d-------------------------------------------------------------------|
a-------------------------------------------------------------------|
f--\5---7-9-7--9-10--12b-10-9--12b-10-9----5---7-9-7---7-9-7-9-7-9--|
c-------------------------------------------------------------------|
g-------------------------------------------------------------------|
d-------------------------------------------------------------------|

chorus
        PM--------|      PM--------|        PM------------------------------|
d---------------------------------------------------------------------------|
a-------------------------------------------------------------12b-10--------|
f--------------------------------------------------------------------12-10--|
c--7-7--7-7-7-7-7-7--3-3--3-3-3-3-3-3--7-7--7-7-7-7-7-7--3-3----------------|
g--7-7--7-7-7-7-7-7--3-3--3-3-3-3-3-3--7-7--7-7-7-7-7-7--3-3----------------|
d--5-5--5-5-5-5-5-5--1-1--1-1-1-1-1-1--5-5--5-5-5-5-5-5--1-1----------------|

         PM-------|        PM---------------|
d-------------------------------------------|
a-------------------------------------------|
f--------------------------------------12~--|
c--7-7--7-7-7-7-7-7--3-3--3-3-3-3-3-3--12~--|
g--7-7--7-7-7-7-7-7--3-3--3-3-3-3-3-3--10~--|
d--5-5--5-5-5-5-5-5--1-1--1-1-1-1-1-1-------|

solo- gtr 1 play verse              slight dive
d----------------------------------------|
a----------------------------------------|
f--5~-----5-7p-5-7p--5h7p5--2b--4p2--0\/-|
c----------------------------------------|
g----------------------------------------|
d----------------------------------------|

**more solo to come soon


pre chorus- gtr 1 stops                               PM------------|
d-------------------------------------------------------------------|
a-------------------------------------------------------------------|
f--\5---7-9-7--9-10--12b-10-9--12b-10-9----5---7-9-7---7-9-7-9-7-9--|
c-------------------------------------------------------------------|
g-------------------------------------------------------------------|
d-------------------------------------------------------------------|

chorus
        PM--------|      PM--------|        PM------------------------------|
d---------------------------------------------------------------------------|
a-------------------------------------------------------------12b-10--------|
f--------------------------------------------------------------------12-10--|
c--7-7--7-7-7-7-7-7--3-3--3-3-3-3-3-3--7-7--7-7-7-7-7-7--3-3----------------|
g--7-7--7-7-7-7-7-7--3-3--3-3-3-3-3-3--7-7--7-7-7-7-7-7--3-3----------------|
d--5-5--5-5-5-5-5-5--1-1--1-1-1-1-1-1--5-5--5-5-5-5-5-5--1-1----------------|

         PM-------|        PM---------------|
d-------------------------------------------|
a-------------------------------------------|
f--------------------------------------12~--|
c--7-7--7-7-7-7-7-7--3-3--3-3-3-3-3-3--12~--|
g--7-7--7-7-7-7-7-7--3-3--3-3-3-3-3-3--10~--|
d--5-5--5-5-5-5-5-5--1-1--1-1-1-1-1-1-------|

outro
e------------3p1--------------3p1--------------3p1--------------3p1----|
b------1---------0------1---------0------1---------0------1---------0--|
g--------0----------------0----------------0----------------0----------|
d----2-----2----------2-----2----------2-----2----------2-----2--------|
a--3----------------3----------------0----------------0----------------|
e----------------------------------------------------------------------|

                   starts to slow down alittle

e------------3p1--------------3p1---------------3p1---------------3p1------3-----------|
b------1---------0------1---------0-------1---------0-------1---------0------1-------1-|
g--------0----------------0-----------------0-----------------0----------------0-----0-|
d----2-----2----------2-----2-----------2-----2-----------2-----2--------2-------2---2-|
a--3----------------3----------------------------------------------------------------3-|
e------------------------------------3-----------------3-------------------------------|
Comments