Motley Crue - Red Hot Chords & Tabs

 

Red Hot Chords & Tabs

Motley Crue Chords & Tabs

Version: 2 Type: Tab 0 ratings
1 star 2 stars 3 stars 4 stars 5 stars
comments

Red Hot Tab

   
red hot
motley crue

/- slide down
\- slide up
p- pull off
h- hammer on
(#)- let ring
^- use bar
b- bend
~- let ring
PM- palm mute
x- palm mute

intro- pick scrape
d-------------------------------------------------------------------
g-------------------------------------------------------------------
c-------------------------------------------------------------------
f-------------------------------------------------------------------
a--x\-----------------\---------------------\--------------------\--
d--x\------------------\---------------------\--------------------\-

d-------------------------------------------------------------------------
g-------8p7----7---------8p7----7---------8p7----7----------8p7----7------
c--9----7------7----9----7------7----9----7------7----7-----7------7----9-
f--9---------9------9---------9------9---------9------7----------9------9-
a--7----------------7----------------7----------------5-----------------7-
d--0----------------0----------------0----------------------------------0-

         PM-------|                     PM-------|
d-------------------------------------------------------------
g--------------------8p7--8--8----------------------8p7--8--8-
c--7/9---------------7----7--7----7/9---------------7----7--7-
f--7/9---------------5----5--5----7/9---------------5----5--5-
a--5/7----------------------------5/7-------------------------
d-------0-0-0-0-0-0--------------------0-0-0-0-0-0------------

         PM-------|                     PM-------|
d-------------------------------------------------------------
g--------------------8p7--8--8----------------------8p7--8----
c--7/9---------------7----7--7----7/9---------------7----7--7-
f--7/9---------------5----5--5----7/9---------------5----5--7-
a--5/7----------------------------5/7-----------------------5-
d-------0-0-0-0-0-0--------------------0-0-0-0-0-0------------

verse                                                   PM--------|
d-------------------------------------------------------------------------------
g---------------------------------------------------------------------8p7--8----
c-9--------7-7----9--------9-9----7---------------7/9-----------------7----7--7-
f-9--------7-7----9--------9-9----7----4--5-------7/9-----------------5----5--7-
a-7--------5-5----7--------7-7----5----------5----5/7-------------------------5-
d-0---------------0-------------------------------------0-0-0-0-0-0-------------

d------------------------------------------------------------
g------------------------------------------------------------
c--9--------7-7----9--------9-9----7---------------9----9--7-
f--9--------7-7----9--------9-9----7----4--5-------9----9--7-
a--7--------5-5----7--------7-7----5----------5----7----7--5-
d--0---------------0-------------------------------0---------

pre chorus          PM-----------------|
d----------------------------------------------
g----------------------------------------------
c--5-----7-----7/9------------------------9--7-
f--5-----7-----7/9------------------------9--7-
a--3-----5-----5/7------------------------7--5-
d-------------------0-0-0-0-0-0--0-0-0-0-------

                    PM-----------------|
d----------------------------------------------
g----------------------------------------------
c--5-----7-----7/9------------------------9--7-
f--5-----7-----7/9------------------------9--7-
a--3-----5-----5/7------------------------7--5-
d-------------------0-0-0-0-0-0--0-0-0-0-------

                    PM-----------------|
d----------------------------------------------
g----------------------------------------------
c--5-----7-----7/9------------------------9--7-
f--5-----7-----7/9------------------------9--7-
a--3-----5-----5/7------------------------7--5-
d-------------------0-0-0-0-0-0--0-0-0-0-------

                PM---------|   PM    PM     PM 
d---------------------------------------------------------------
g---------------------------------------------------------------
c--5----4----2---------------5-----5-----5----------------------
f--5----4----2---------------5-----5-----5--0-0--7p5--7p5--5----
a--3----2----0--0-0-0-0-0-0----0-0---0-0---------7p5--7p5--5--7-
d-------------------------------------------------------------5-

chorus
d---------------------------------------------------------------------
g-------8p7----7---------8p7----7----------8p7----7----------8p7----7-
c--9----7------7----9----7------7----7-----7------7----9-----7------7-
f--9---------9------9---------9------7----------9------9----------9---
a--7----------------7----------------5-----------------7--------------
d--0----------------0----------------------------------0--------------
[ Tab from: http://www.guitartabs.cc/tabs/m/motley_crue/red_hot_tab_ver_2.html ]
d----------------------------------------------------------------
g-------8p7----7---------8p7----7----------8p7----7--------------
c--9----7------7----9----7------7----7-----7------7----9-----7-7-
f--9---------9------9---------9------7----------9------9-----7-7-
a--7----------------7----------------5-----------------7-----5-5-
d--0----------------0----------------------------------0---------

d---------------------------------------------------------------------
g-------8p7----7---------8p7----7----------8p7----7----------8p7----7-
c--9----7------7----9----7------7----7-----7------7----9-----7------7-
f--9---------9------9---------9------7----------9------9----------9---
a--7----------------7----------------5-----------------7--------------
d--0----------------0----------------------------------0--------------

d--------------------------------------------------------------
g-------8p7----7---------8p7----7----------8p7----7------------
c--9----7------7----9----7------7----7-----7------7----9----9\-
f--9---------9------9---------9------7----------9------9----9\-
a--7----------------7----------------5-----------------7----7\-
d--0----------------0----------------------------------0-------

verse                                                   PM--------|
d-------------------------------------------------------------------------------
g---------------------------------------------------------------------8p7--8----
c-9--------7-7----9--------9-9----7---------------7/9-----------------7----7--7-
f-9--------7-7----9--------9-9----7----4--5-------7/9-----------------5----5--7-
a-7--------5-5----7--------7-7----5----------5----5/7-------------------------5-
d-0---------------0-------------------------------------0-0-0-0-0-0-------------

d------------------------------------------------------------
g------------------------------------------------------------
c--9--------7-7----9--------9-9----7---------------9----9--7-
f--9--------7-7----9--------9-9----7----4--5-------9----9--7-
a--7--------5-5----7--------7-7----5----------5----7----7--5-
d--0---------------0-------------------------------0---------

solo
d----------------------------------------------------------------------------
g----------------------------------------------------------------------------
c--2b----p0--2~----0----------------------------0----------------------------
f--------------------4--0---0h2p0h2p0--0-----2-----4~~--2--0--0^(2)~~--2--0--
a-----------------------------------------3----------------------------------
d----------------------------------------------------------------------------
         
                                                                   PM-------|
d------------------------------------------------------------------------------
g-----0---------1-----------------------------------0--------------------------
c---0-0------2--2----2/4----2--0--2/4--2--0------0--0------4--2--2-------------
f-2-2-----4--4-------4/5----4--2--4/5--4--2---2--2------1--1--4--2-------------
a-3-------5-----------------------------------3---------2--------0-0-0-0-0-0-0-
d------------------------------------------------------------------------------

       PM     PM     PM
d---------------------------------------
g---------------------------------------
c--5------5------5----------------------
f--5------5------5-------7p5--7p5--5----
a-----0-0----0-0----0-0--7p5--7p5--5--7-
d-------------------------------------5-

outro
d---------------------------------------------------------------------
g-------8p7----7---------8p7----7----------8p7----7----------8p7----7-
c--9----7------7----9----7------7----7-----7------7----9-----7------7-
f--9---------9------9---------9------7----------9------9----------9---
a--7----------------7----------------5-----------------7--------------
d--0----------------0----------------------------------0--------------

        PM--------|                    PM---------|
d-------------------------------------------------------------
g--------------------8p7--8--8----------------------8p7--8--8-
c--7/9---------------7----7--7----7/9---------------7----7--7-
f--7/9---------------5----5--5----7/9---------------5----5--5-
a--5/7----------------------------5/7-------------------------
d-------0-0-0-0-0-0--------------------0-0-0-0-0-0------------

        PM--------|                    PM---------|
d-------------------------------------------------------------
g--------------------8p7--8--8----------------------8p7--8--8-
c--7/9---------------7----7--7----7/9---------------7----7--7-
f--7/9---------------5----5--5----7/9---------------5----5--5-
a--5/7----------------------------5/7-------------------------
d-------0-0-0-0-0-0--------------------0-0-0-0-0-0------------

        PM--------|                    PM---------|
d-------------------------------------------------------------
g--------------------8p7--8--8----------------------8p7--8--8-
c--7/9---------------7----7--7----7/9---------------7----7--7-
f--7/9---------------5----5--5----7/9---------------5----5--5-
a--5/7----------------------------5/7-------------------------
d-------0-0-0-0-0-0--------------------0-0-0-0-0-0------------


questions email me- valkeyrie3@hotmail.com
Comments