Motley Crue - Public Enemy 1 Chords & Tabs

 

Public Enemy 1 Chords & Tabs

Motley Crue Chords & Tabs

Version: 2 Type: Tab 0 ratings
1 star 2 stars 3 stars 4 stars 5 stars
comments

Public Enemy 1 Tab

Come On And Dance
Mötley Crüe

Tab by Jorge E. Maycotte
www.geocities.com/SunsetStrip/Alley/3211/motleycrue.htm


D---------------------------------------------------|-------------------|
A---------------------------------------------------|-------------------|
F---------------------------------------------------|-------------------|
C---------7-----6--------7-----6-----7-----4--4--4--|--------7-----6----|
G---------5-----4--------5-----4-----5-----2--2--2--|--------5-----4----|
D---0--0-----0-----0--0-----0-----0-----0-----------|--0--0-----0-------|

D------------------------------------|----------------------------------|
A------------------------------------|----------------------------------|
F------------------------------------|----------------------------------|
C---------7-----6-----7--------------|--------7-----6--------7-----6----|
G---------5-----4-----5--------------|--------5-----4--------5-----4----|
D---0--0-----0-----0-----3--2--0--0--|--0--0-----0-----0--0-----0-------|

D---------------------|-------------------------------------------------|
A---------------------|-------------------------------------------------|
F---------------------|-------------------------------------------------|
C------7-----4--4--4--|--------7-----6--------7-----6-----7--------/----|
G------5-----2--2--2--|--------5-----4--------5-----4-----5--------/----|
D---0-----0-----------|--0--0-----0-----0--0-----0-----0-----------/----|


       Verse
D---|-----------------|-----------------|--------------------------|----|
A---|-----------------|-----------------|--------------------------|----|
F---|-----------------|-----------------|--------------------------|----|
C---|--2--2--------7--|--2--2--------7--|--2--2--------7-----------|----|
G---|--2--2--------5--|--2--2--------5--|--2--2--------5-----7-----|----|
D---|--0--0-----0-----|--0--0-----0-----|--0--0--0--0--------5-----|----|

D------------------|-----------------|--------------------------|-------|
A------------------|-----------------|--------------------------|-------|
F------------------|-----------------|--------------------------|-------|
C---2--2--------7--|--2--2--------7--|--2--2--------7-----------|--7----|
G---2--2--------5--|--2--2--------5--|--2--2--------5-----7-----|--5----|
D---0--0-----0-----|--0--0-----0-----|--0--0--0--0--------5-----|-------|


                                           Chorus
D---------------------------------------|-------------------------------|
A---------------------------------------|-------------------------------|
F---------------------------------------|-------------------------------|
C---------4-----------7-----------------|--------7-----6--------7-------|
G---------2-----------5-----------------|--2-----5-----4--------5-------|
D------0-----------0-----------3--2--3--|--0--------0-----0--0-----0----|

D------------------------|----------------------------------------------|
A------------------------|----------------------------------------------|
F------------------------|----------------------------------------------|
C---6-----7-----4--4--4--|--------7-----6--------7-----6-----7----------|
G---4-----5-----2--2--2--|--------5-----4--------5-----4-----5----------|
D------0-----0-----------|--0--0-----0-----0--0-----0-----0-----3--2----|

D---------|--------------------------------------------|----------------|
A---------|--------------------------------------------|----------------|
F---------|--------------------------------------------|----------------|
C---------|--7-----6--------7-----6-----7-----4--4--4--|--------7-------|
G---------|--5-----4--------5-----4-----5-----2--2--2--|--------5-------|
D---0--0--|-----0-----0--0-----0-----0-----0-----------|--0--0-----0----|


                                           Verse
D---------------------------------------|-----------------|-------------|
A---------------------------------------|-----------------|-------------|
F---------------------------------------|-----------------|-------------|
C---6--------7-----6-----7--------------|--2--2--------7--|--2--2-------|
G---4--------5-----4-----5--------------|--2--2--------5--|--2--2-------|
D------0--0-----0-----0--------3--2--3--|--0--0-----0-----|--0--0-------|

D---------|--------------------------|-----------------|----------------|
A---------|--------------------------|-----------------|----------------|
F---------|--------------------------|-----------------|----------------|
C------7--|--2--2--------7-----------|--2--2--------7--|--2--2----------|
G------5--|--2--2--------5-----7-----|--2--2--------5--|--2--2----------|
D---0-----|--0--0--0--0--------5-----|--0--0-----0-----|--0--0-----0----|

D------|--------------------------|-------------------------------------|
A------|--------------------------|-------------------------------------|
F------|--------------------------|-------------------------------------|
C---7--|--2--2--------7-----------|--7--------4-----------7-------------|
G---5--|--2--2--------5-----7-----|--5--------2-----------5-------------|
D------|--0--0--0--0--------5-----|--------0-----------0-----------3----|


             Chorus
D---------|--------------------------------------------------|----------|
A---------|--------------------------------------------------|----------|
F---------|--------------------------------------------------|----------|
C---------|--------7-----6--------7-----6-----7-----4--4--4--|----------|
G---------|--2-----5-----4--------5-----4-----5-----2--2--2--|----------|
D---2--3--|--0--------0-----0--0-----0-----0-----0-----------|--0--0----|

D---------------------------------------------|-------------------------|
A---------------------------------------------|-------------------------|
F---------------------------------------------|-------------------------|
C---7-----6--------7-----6-----7--------------|--7-----6--------7-------|
G---5-----4--------5-----4-----5--------------|--5-----4--------5-------|
D------0-----0--0-----0-----0-----3--2--0--0--|-----0-----0--0-----0----|

D------------------------|----------------------------------------------|
A------------------------|----------------------------------------------|
F------------------------|----------------------------------------------|
C---6-----7-----4--4--4--|--------7-----6--------7-----6-----7----------|
G---4-----5-----2--2--2--|--------5-----4--------5-----4-----5----------|
D------0-----0-----------|--0--0-----0-----0--0-----0-----0--------3----|


             solo
D---------|--------------------------|--------------------------|-------|
A---------|--------------------------|--------------------------|-------|
F---------|--7-----7-----7-----7-----|--7-----7-----7-----7-----|-------|
C---------|-----7-----7-----7-----7--|-----7-----7-----7-----7--|-------|
G---------|--------------------------|--------------------------|-------|
D---2--3--|--------------------------|--------------------------|-------|


    and so on...
D-----------------------------------------------------------------------|
A-----------------------------------------------------------------------|
F-----------------------------------------------------------------------|
C-----------------------------------------------------------------------|
G-----------------------------------------------------------------------|
D-----------------------------------------------------------------------|

[ Tab from: http://www.guitartabs.cc/tabs/m/motley_crue/public_enemy_1_tab_ver_2.html ]
                   Verse
D---------------|-----------------|-----------------|-------------------|
A---------------|-----------------|-----------------|-------------------|
F---------------|-----------------|-----------------|-------------------|
C---------------|--2--2--------7--|--2--2--------7--|--2--2--------7----|
G---------------|--2--2--------5--|--2--2--------5--|--2--2--------5----|
D---------------|--0--0-----0-----|--0--0-----0-----|--0--0--0--0-------|

D------------|-----------------|-----------------|----------------------|
A------------|-----------------|-----------------|----------------------|
F------------|-----------------|-----------------|----------------------|
C------------|--2--2--------7--|--2--2--------7--|--2--2--------7-------|
G------7-----|--2--2--------5--|--2--2--------5--|--2--2--------5-------|
D------5-----|--0--0-----0-----|--0--0-----0-----|--0--0--0--0----------|


                                                       Chorus
D---------|-----------------------------------------|-------------------|
A---------|-----------------------------------------|-------------------|
F---------|-----------------------------------------|-------------------|
C---------|--7--------4-----------7-----------------|--------7-----6----|
G---7-----|--5--------2-----------5-----------------|--2-----5-----4----|
D---5-----|--------0-----------0-----------3--2--3--|--0--------0-------|

D------------------------------------|----------------------------------|
A------------------------------------|----------------------------------|
F------------------------------------|----------------------------------|
C---------7-----6-----7-----4--4--4--|--7--------4-----------7----------|
G---------5-----4-----5-----2--2--2--|--5--------2-----------5----------|
D---0--0-----0-----0-----0-----------|--------0-----------0-------------|


                Chorus
D------------|--------------------------------------------------|-------|
A------------|--------------------------------------------------|-------|
F------------|--------------------------------------------------|-------|
C------------|--------7-----6--------7-----6-----7-----4--4--4--|-------|
G------------|--2-----5-----4--------5-----4-----5-----2--2--2--|-------|
D---3--2--3--|--0--------0-----0--0-----0-----0-----0-----------|--0----|

D------------------------------------------------|----------------------|
A------------------------------------------------|----------------------|
F------------------------------------------------|----------------------|
C------7-----6--------7-----6-----7--------------|--7-----6--------7----|
G------5-----4--------5-----4-----5--------------|--5-----4--------5----|
D---0-----0-----0--0-----0-----0-----3--2--0--0--|-----0-----0--0-------|

D---------------------------|-------------------------------------------|
A---------------------------|-------------------------------------------|
F---------------------------|-------------------------------------------|
C------6-----7-----4--4--4--|--------7-----6--------7-----6-----7-------|
G------4-----5-----2--2--2--|--------5-----4--------5-----4-----5-------|
D---0-----0-----0-----------|--0--0-----0-----0--0-----0-----0----------|

D------------|--------------------------------------------|-------------|
A------------|--------------------------------------------|-------------|
F------------|--------------------------------------------|-------------|
C------------|--7-----6--------7-----6-----7-----4--4--4--|--------7----|
G------------|--5-----4--------5-----4-----5-----2--2--2--|--------5----|
D---3--2--3--|-----0-----0--0-----0-----0-----0-----------|--0--0-------|

D------------------------------------------|----------------------------|
A------------------------------------------|----------------------------|
F------------------------------------------|----------------------------|
C------6--------7-----6-----7--------------|--7-----6--------7-----6----|
G------4--------5-----4-----5--------------|--5-----4--------5-----4----|
D---0-----0--0-----0-----0--------3--2--3--|-----0-----0--0-----0-------|

D---------------------|-------------------------------------------------|
A---------------------|-------------------------------------------------|
F---------------------|-------------------------------------------------|
C------7-----4--4--4--|--------7-----6--------7-----6-----7-------------|
G------5-----2--2--2--|--------5-----4--------5-----4-----5-------------|
D---0-----0-----------|--0--0-----0-----0--0-----0-----0--------3--2----|

D------|--------------------------------------------|-------------------|
A------|--------------------------------------------|-------------------|
F------|--------------------------------------------|-------------------|
C------|--7-----6--------7-----6-----7-----4--4--4--|--------7-----6----|
G------|--5-----4--------5-----4-----5-----2--2--2--|--------5-----4----|
D---3--|-----0-----0--0-----0-----0-----0-----------|--0--0-----0-------|

D------------------------------------|----------------------------------|
A------------------------------------|----------------------------------|
F------------------------------------|----------------------------------|
C---------7-----6-----7--------------|--7-----6--------7-----6-----7----|
G---------5-----4-----5--------------|--5-----4--------5-----4-----5----|
D---0--0-----0-----0--------3--2--3--|-----0-----0--0-----0-----0-------|

D---------------|--------------------------------------------------|----|
A---------------|--------------------------------------------------|----|
F---------------|--------------------------------------------------|----|
C------4--4--4--|--------7-----6--------7-----6-----7--------------|----|
G------2--2--2--|--------5-----4--------5-----4-----5--------------|----|
D---0-----------|--0--0-----0-----0--0-----0-----0--------3--2--3--|----|


========================================================================
==                       TABLATURE EXPLANATION                        ==
========================================================================

----------                ----------                 ----t---|
----5h8--- Hammeron       ----(8)--- Ghhost          ----6---| Tap
----------                ---------- Noote           --------|
----5p8--- Pulloff        ----------                 --------|

----------                ----------                 -----p--|
----5/8--- Slide Up       -----x---- Deead           -----7--| Pop
----------                ---------- Noote           --s-----|
----5\8--- Slide Down     ----------                 --5-----| Slap

----------                ||------|| Reepeat         --------|
----5~~~-- Vibrato        ||*----*||                 ---5^---| Bend
----------                ||*----*||                 --------|
----------                ||------||                 --------|

----------                ----------                 --------|
-4:------- Time           ----------                 --------|
-4:------- Signature      ----------                 --------|
----------                ----------                 --------|

Rhythm:
  w = whole note            W = dotted whole
  h = half note             H = dotted half
  q = quarter note          Q = dotted quarter
  e = eighth note           E = dotted eighth
  s = sixteenth note        S = dotted sixteenth
  t = 32nd note             T = dotted 32nd
  x = 64th note             X = dotted 64th
  ^ = triplet

========================================================================
==               Created with BUCKET O' TAB for Windows               ==
==                  For more info email gse@his.com                   ==
========================================================================
Comments