Motley Crue - Public Enemy 1 Chords & Tabs

 

Public Enemy 1 Chords & Tabs

Motley Crue Chords & Tabs

Version: 1 Type: Bass Tab

Public Enemy 1 Bass Tab

|----------------|----------------|---------------|----------------|
|----------------|----------------|---------------|----------------|
|----------------|----------------|---------------|----------------|
|-12-12-12-12-12-|-12-12-12-12-12-|-12-12-12-12-12|-12-12-12-12-12-|

|----------------|----------------|----------------|
|----------------|----------------|----------------|
|----------------|----------------|----------------|
|-12-12-12-12-12-|-12-12-12-12-12-|-12-12-12-12-12-|

|-----------------------------------------------------|
|-----------------------------------------------------|
|-------------------------------/12-12-12-12-12-12-12-|
|-12-12-12-12-12-12-7-7-7-7-7-7------7--7--7--7--7--7-|

|---------------------------------|-------------------------------------|
|----------------12----10---9---7-|----------------12----14----15----17-|
|---------------------------------|-------------------------------------|
|-5-5-5-5-5-5-12----10----9---7---|-5-5-5-5-5-5-12----14----15----17----|

|-----------------------------------|-----------------|
|----------------12----10---9---7---|-----------------|
|-----------------------------------|-----------------|
|-5-5-5-5-5-5-12----10----9---7---5-|-7-7-7-7-7-7-7-7-|

|------------------------|
|------------------------|
|------------------------|
|-/17-17-17-17-17-7-9-10-|

|-------------------------|-------------------------|----------------------|
|-------------------------|-------------------------|----------------------|
|-------------------------|-------------------------|----------------------|
|-12-12-10-9-9-5-3-3-9-10-|-12-12-10-9-9-5-3-3-9-10-|-12-12-9-9-5-3-3-9-10-|

|--------------------------|
|--------------------------|
|--------------------------|
|-12-12-10-9-9-5-5-3-3-2-0-|

|---------------------------------------------------------------|
|---------------------------------------------------------------|
|---------------------------------------------------------------|
|-7-7-7-7-7-7-7-7-7-7-7-7-7-7-7-7-7-7-7-7-7-7-7-7-7-7-7-7-7-7-7-|

|-------------------------------------------------|
|----------------------------------------10----11-|
|-------------------------------------------------|
|-12-12-12-12-12-12-12-12-12-12-12-12-10----11----|

|-------------------------------------------------|
|----------------------------------------10----11-|
|-------------------------------------------------|
|-12-12-12-12-12-12-12-12-12-12-12-12-10----11----|

|--------------------------------|
|--------------------------------|
|-------------/12-12-12-12-12----|
|-7-7-7-7-7-7-----------------10-|

|-----------------------------------------------------|
|-----------------------------------------------------|
|-------------------------------/12-12-12-12-12-12-12-|
|-12-12-12-12-12-12-7-7-7-7-7-7------7--7--7--7--7--7-|

|---------------------------------|-------------------------------------|
|----------------12----10---9---7-|----------------12----14----15----17-|
|---------------------------------|-------------------------------------|
|-5-5-5-5-5-5-12----10----9---7---|-5-5-5-5-5-5-12----14----15----17----|

|-----------------------------------|-----------------|
|----------------12----10---9---7---|-----------------|
|-----------------------------------|-----------------|
|-5-5-5-5-5-5-12----10----9---7---5-|-7-7-7-7-7-7-7-7-|

|------------------------|
|------------------------|
|------------------------|
|-/17-17-17-17-17-7-9-10-|

|-------------------------|-------------------------|----------------------|
|-------------------------|-------------------------|----------------------|
|-------------------------|-------------------------|----------------------|
|-12-12-10-9-9-5-3-3-9-10-|-12-12-10-9-9-5-3-3-9-10-|-12-12-9-9-5-3-3-9-10-|

|--------------------------|
|--------------------------|
|--------------------------|
|-12-12-10-9-9-5-5-3-3-2-0-|
[ Tab from: http://www.guitartabs.cc/tabs/m/motley_crue/public_enemy_1_btab.html ]
|-----------------------------------------------------------------------|
|-----------------------------------------------------------------------|
|-----------------------------------------------------------------------|
|-7-7-7-7-7-7-7-7-7-7-7-7-7-7-7-7-7-7-7-7-7-7-7-17-17-17-17-17-17-17-17-|

|-------------------------------------------------|
|----------------------------------------10----11-|
|-------------------------------------------------|
|-12-12-12-12-12-12-12-12-12-12-12-12-10----11----|

|-------------------------------------------------|
|----------------------------------------10----11-|
|-------------------------------------------------|
|-12-12-12-12-12-12-12-12-12-12-12-12-10----11----|

|--------------------------------|
|--------------------------------|
|-------------/12-12-12-12-12----|
|-7-7-7-7-7-7-----------------10-|

|-------------------------------------------------|
|----------------------------------------10----11-|
|-------------------------------------------------|
|-12-12-12-12-12-12-12-12-12-12-12-12-10----11----|

|-------------------------------------------------|
|----------------------------------------10----11-|
|-------------------------------------------------|
|-12-12-12-12-12-12-12-12-12-12-12-12-10----11----|

|-------------------|
|-------------------|
|-------------------|
|-12-12-12-12-12-12-|

|--------------------------------|
|--------------------------------|
|-------------/12-12-12-12-12----|
|-7-7-7-7-7-7-----------------10-|

|---------------------------------|-------------------------------------|
|----------------12----10---9---7-|----------------12----14----15----17-|
|---------------------------------|-------------------------------------|
|-5-5-5-5-5-5-12----10----9---7---|-5-5-5-5-5-5-12----14----15----17----|

|-----------------------------------|-----------------|
|----------------12----10---9---7---|-----------------|
|-----------------------------------|-----------------|
|-5-5-5-5-5-5-12----10----9---7---5-|-7-7-7-7-7-7-7-7-|

|------------------------|
|------------------------|
|------------------------|
|-/17-17-17-17-17-7-9-10-|

|---------|---------|-------------|-------------|-------------|-------|
|---------|---------|-------------|-------------|-------------|-------|
|---------|---------|-------------|-------------|-------------|-------|
|-0-2-3-0-|-0-3-5-0-|-0-0-3-5-0-0-|-0-0-3-5-0-0-|-0-0-3-5-0-0-|-/9-10-|

|---------------------------|---------------------------|
|---------------------------|---------------------------|
|---------------------------|---------------------------|
|-12-12-10-9-9-5-5-3-3-9-10-|-12-12-10-9-9-5-5-3-3-9-10-|

|---------------------------|---------------------------|
|---------------------------|---------------------------|
|---------------------------|---------------------------|
|-12-12-10-9-9-5-5-3-3-9-10-|-12-12-10-9-9-5-5-3-3-9-10-|

|------------------------------------|
|------------------------------------|
|------------------------------------|
|-12-12-10-9-9-9/17-17-15-15-14-9-10-|

|------------------------------------|
|------------------------------------|
|------------------------------------|
|-12-12-10-9-9-9/17-17-15-15-14-9-10-|

|------------------------------------|
|------------------------------------|
|------------------------------------|
|-12-12-10-9-9-9/17-17-15-15-14-9-10-|

|------------------------------------|
|------------------------------------|
|------------------------------------|
|-12-12-10-9-9-9/17-17-15-15-14-9-10-|

|--------------------------|
|--------------------------|
|--------------------------|
|-12-12-10-9-9-5-5-3-3-2-0-|

|---------------------------------------------------------------|
|---------------------------------------------------------------|
|---------------------------------------------------------------|
|-7-7-7-7-7-7-7-7-7-7-7-7-7-7-7-7-7-7-7-7-7-7-7-7-7-7-7-7-7-7-7-|

|----------------|----------------|---------------|----------------|
|----------------|----------------|---------------|----------------|
|----------------|----------------|---------------|----------------|
|-12-12-12-12-12-|-12-12-12-12-12-|-12-12-12-12-12|-12-12-12-12-12-|

there you go. It is in drop d(DADG).
Motley Crue rules.