Motley Crue - Live Wire Chords & Tabs

 

Live Wire Chords & Tabs

Motley Crue Chords & Tabs

Version: 4 Type: Tab

Live Wire Tab

   
#----------------------------------PLEASE NOTE---------------------------------#
#This file is the author's own work and represents their interpretation of the #
#song. You may only use this file for private study, scholarship, or research. #
#------------------------------------------------------------------------------##

                                    LIVE WIRE
                           As recorded by Motley Crue

Transcribed by andrew88
ridethelightning3@hotmail.com

Gtr I (D G C F A D)
Gtr II (D G C F A D)

 Intro
 4/4
  Gtr I
     PM......|     PM......|          PM......|
|------------------------------|------------------------------|
|------------------------------|------------------------------|
|------------------------------|------------------------------|
|-5------------5-------------5-|-(5)-------------5-5---7-7----|
|-3--0-0-0-0-0-3---0-0-0-0-0-3-|-(3)--0-0-0-0-0--3-3---5-5----|
|------------------------------|------------------------------|


     PM......|     PM......|
|------------------------------|
|------------------------------|
|------------------------------|
|-5------------5-------------5-|
|-3--0-0-0-0-0-3---0-0-0-0-0-3-|
|------------------------------|


       PM........|
|-------------------------------------------------|
|------------------------------------------<5>----|
|----------------------<5>------------------------|
|-(5)--------------<5>-----<5>-----<5>-<5>--------|
|-(3)--0-0-0-0-0-0-------------<5>----------------|
|-------------------------------------------------|


     PM......|     PM......|          PM......|
|------------------------------|------------------------------|
|------------------------------|------------------------------|
|------------------------------|------------------------------|
|-5------------5-------------5-|-(5)-------------5-5---7-7----|
|-3--0-0-0-0-0-3---0-0-0-0-0-3-|-(3)--0-0-0-0-0--3-3---5-5----|
|------------------------------|------------------------------|


     PM......|     PM......|          PM..|
|------------------------------|-----------------------------------|
|------------------------------|-----------------------------------|
|------------------------------|------------7b9---5----------------|
|-5------------5-------------5-|-(5)----------------7-5------------|
|-3--0-0-0-0-0-3---0-0-0-0-0-3-|-(3)--0-0-0-------------7-5-3-0----|
|------------------------------|-----------------------------------|


   Verse
       PM......|     PM......|          PM......|
||-------------------------------|----------------------------||
||o------------------------------|---------------------------o||
||-------------------------------|----------------------------||
||--5------------5-------------5-|-(5)-------------7--x-7-----||
||o-3--0-0-0-0-0-3---0-0-0-0-0-3-|-(3)--0-0-0-0-0--5--x-5----o||
||-------------------------------|----------------------------||


     PM......|     PM......|          PM......|
|------------------------------|------------------------------|
|------------------------------|------------------------------|
|------------------------------|------------------------------|
|-5------------5-------------5-|-(5)-------------7--7-7--9----|
|-3--0-0-0-0-0-3---0-0-0-0-0-3-|-(3)--0-0-0-0-0--5--5-5--7----|
|------------------------------|------------------------------|


 Pre-Chorus
|-------------------------|----------------------------|
|-------------------------|----------------------------|
|-------------------------|----------------------------|
|-10----------------------|-12-------------------------|
|--8--------7h8p7-----7---|-10--------9h10p9------9----|
|-----------------10----8-|------------------10--------|

[ Tab from: http://www.guitartabs.cc/tabs/m/motley_crue/live_wire_tab_ver_4.html ]
|------|
|------|
|-2----|
|-2----|
|-0----|
|------|


   Chorus
    PM|       PM|         PM........|       PM|         PM..|
                                                                4x
||------------------------------|-------------------------------||
||o-----------------------------|------------------------------o||
||------------------------------|-------------------------------||
||------5--7------5-5--7--------|-----5--7------5-5--7----------||
||o-0-0-3--5--0-0-3-3--5--0-0-0-|-0-0-3--5--0-0-3-3--5--0-0-0--o||
||------------------------------|-------------------------------||


   Interlude
                                                                  3x
||------------------------------------|---------------------------||
||o-----------------------------------|--------------------------o||
||------------------12----------------|-10-----------------12-----||
||--7---------------12----------------|-10-----------------12-----||
||o-7---------------10----------------|--8-----------------10----o||
||--5---------------------------------|---------------------------||


  Outro
  Gtr I
|---------------------------|------------------------------|
|---------------------------|------------------------------|
|---------------------------|------------------------------|
|---------------------------|------------------------------|
|-3--2--0--2-3--2--3s5--3-2-|--3--2--0--2-3--2--3s5--3-2---|
|---------------------------|------------------------------|
|
| Gtr II
|---------------------------|------------------------------|
|---------------------------|------------------------------|
|---------------------------|-12---------------------------|
|-7-------------------------|-12---------------------------|
|-7-------------------------|-10---------------------------|
|-5-------------------------|------------------------------|


|----------------------------|------------------------------|
|----------------------------|------------------------------|
|----------------------------|------------------------------|
|----------------------------|------------------------------|
|--3--2--0--2-3--2--3s5--3-2-|--3--2--0--2-3--2--3s5--3-2---|
|----------------------------|------------------------------|
|
|----------------------------|------------------------------|
|----------------------------|------------------------------|
|-10-------------------------|-12---------------------------|
|-10-------------------------|-12---------------------------|
|--8-------------------------|-10---------------------------|
|----------------------------|------------------------------|


Tablature Legend
----------------
 h   - hammer-on
 p   - pull-off
 b   - bend
 pb  - pre-bend
 r   - bend release (if no number after the r, then release immediately)
 /\  - slide into or out of (from/to "nowhere")
 s   - legato slide
 S   - shift slide
  - natural harmonic
[n]  - artificial harmonic
n(n) - tapped harmonic
 ~   - vibrato
 tr  - trill
 T   - tap
 TP  - trem. picking
 PM  - palm muting
\n/  - tremolo bar dip; n = amount to dip
 \n  - tremolo bar down
 n/  - tremolo bar up
/n\  - tremolo bar inverted dip
 =   - hold bend; also acts as connecting device for hammers/pulls
 <>  - volume swell (louder/softer)
 x   - on rhythm slash represents muted slash
 o   - on rhythm slash represents single note slash

Misc Legend
-----------
 |  - bar
||  - double bar
||o - repeat start
o|| - repeat end
*|  - double bar (ending)
 :  - bar (freetime)
 $  - Segno
 &  - Coda
Tempo markers -  = BPM(8/16=s8/s16), where s8 = swing 8ths, s16 = swing 16ths


***************************************************************************************
* Generated using Power Tab Editor by Brad Larsen - http://powertab.guitarnetwork.org *
***************************************************************************************