Motley Crue - Live Wire Chords & Tabs

 

Live Wire Chords & Tabs

Motley Crue Chords & Tabs

Version: 1 Type: Tab 1 rating
1 star 2 stars 3 stars 4 stars 5 stars
comments

Live Wire Tab

Motley crue – live wire

Here you have the real live wire tab, enjoy
[ Tab from: http://www.guitartabs.cc/tabs/m/motley_crue/live_wire_tab.html ]
Intro:
E --------------------------------------------------------
B---------------------------------------------------------
G--3------------3------------3------------3-3----5-5------
D--3------------3------------3------------3-3----5-5------
A----0-0-0-0-0--0-0-0-0-0--0-0-0-0-0----------------------
E---------------------------------------------------------

Ref:
E---------------------------------------------------
B---------------------------------------------------
G-3-2------3-2------------3-2-----3-2---------------
D-3-2------3-2------------3-2-----3-2---------------
A------0-0-----0-0-0-0-0-----0-0--------------------
E---------------------------------------------------


by:mikael åkerberg
Comments