Motley Crue - Live Wire Chords & Tabs

 

Live Wire Chords & Tabs

Motley Crue Chords & Tabs

Version: 2 Type: Bass Tab

Live Wire Bass Tab

Band: Motley Crue
Song: Live Wire
Album: Too Fast For Love
Bass: Nikki Sixx
Tabbed by BIG TOMMY P

I know this tab isnít 100%, itís more like 60 or 70, but if you wish
to make a better tab by copying this one, feel free to do so. My only request
is that you give me credit for it. Anyway, Iíve done my best, see what you can do.

Words and Music by Nikki Sixx

Intro 1: (x1)
F|--------------------|
C|--------------------|
G|---33--55-----------|
D|--------------------|

Intro 2: (x2)
F|-----------------------------------------------------------|
C|-----------------------------------------------------------|
G|---------------------------33-55---------------------------|
D|-3-55555--3-55555-3-55555----------------------------------|

Verse: (x3)
F|---------------------------------------------------|
C|---------------------------------------------------|
G|---------------------------------------------------|
D|-3-55555--3-55555--3-55555--3-55555----------------|

Pre Chorus: (x1)

F|--------------------------------------------------------|
C|--------------------------------------------------------|
G|--8---7--------10--9------------------------------------|
D|---------10-8----------12-10--10------------------------|

Vince will sing something unaccompanied
[ Tab from: http://www.guitartabs.cc/tabs/m/motley_crue/live_wire_btab_ver_2.html ]
Chorus: (x8)
F|-------------------------------------|
C|-------------------------------------|
G|-------------------------------------|
D|-3--55555--3--55555------------------|

Intro 1: (x1)

Pre Intro 2: (x1)
F|-------------------------------------------------|
C|-------------------------------------------------|
G|-------------------------33--55------------------|
D|-5--55--5--55--5--55-----------------------------|

Intro 2: (x2)
Verse: (x3)
Pre Chorus: (x1)

Vocal Solo

Chorus: (x8)

Interlude: (x1)
F|----------------------------------------------------------------|
C|-5h777-5h777-5h777/9-7--3h555-3h555-3h555/7-5-------------------|
G|----------------------------------------------------------------|
D|----------------------------------------------------------------|

Interlude (cont)
F|-------------------------------------------------------------------|
C|-2h333-2h333-2h333/5-3-0h222-0h222--0h2-2--3-5---------------------|
G|-------------------------------------------------------------------|
D|-------------------------------------------------------------------|

Bridge: (x7)                            (x1)
F|------------------|----------------------|
G|------------------|-7-7-7-7-7-7-7-7------|
C|------------------|----------------------|
D|-5-5-5-5-5-5-5-5--|----------------------|

Chorus: (x16)
Intro 2: (x3)

End: (x1)
F|-----------------------------------------------------|
C|-----------------------------------------------------|
G|------------------------------0-0-2-3-2--------------|
D|-3-55555-3-55555-3-55555---3-------------3--55-------|