Motley Crue - Live Wire Chords & Tabs

 

Live Wire Chords & Tabs

Motley Crue Chords & Tabs

Version: 1 Type: Bass Tab 0 ratings
1 star 2 stars 3 stars 4 stars 5 stars
comments

Live Wire Bass Tab

I've been looking all over for this tab but no one has it. So i decided to
make it my self. And in my opinion i think i did a pretty sweet job.
But anyways keep on bringing in more tabs by the Crue.
----------------------------------------------------------------------------
Motley Crue, Live Wire (Bass Tab)

Intro part 1 (only mick mars)

intro part2 (x2)
G|------------------------------------------------------------------|
D|------------------------------------------------------------------|
A|------------------------------------------------------------------|
E|-0-5-5-5-5-5-5--0-5-5-5-5-5-5--0-5-5-5-5-5-5--5-5-6-6-------------|


Verse (x3)
G|------------------------------------------------------------------|
D|------------------------------------------------------------------|
A|------------------------------------------------------------------|
E|-0-5-5-5-5-5-5--0-5-5-5-5-5-5--0-5-5-5-5-5-5--5-5-6-6-------------|

End of verse (x1)
G|------------------------------------------------------------------|
D|------------------------------------------------------------------|
A|------------------------------------------------------------------|
E|-3--6-5-3---5--8-7-5----------------------------------------------|

Pause:

chorus(x3)
G|------------------------------------------------------------------|
D|------------------------------------------------------------------|
A|------------6--------------4--------------2-------------3---------|
E|-5-5-5--5-5--5--3-3-3--3-3--3--1-1-1--1-1--1--2-2-2--2-2-2-2------|


Verse (x3)
G|------------------------------------------------------------------|
D|------------------------------------------------------------------|
A|------------------------------------------------------------------|
E|-0-5-5-5-5-5-5--0-5-5-5-5-5-5--0-5-5-5-5-5-5--5-5-6-6-------------|

End of verse (x1)
G|------------------------------------------------------------------|
D|------------------------------------------------------------------|
A|------------------------------------------------------------------|
E|-3--6-5-3---5--8-7-5----------------------------------------------|

Pause:


chorus(x3)
G|------------------------------------------------------------------|
D|------------------------------------------------------------------|
A|------------6--------------4--------------2-------------3---------|
E|-5-5-5--5-5--5--3-3-3--3-3--3--1-1-1--1-1--1--2-2-2--2-2-2-2------|

[ Tab from: http://www.guitartabs.cc/tabs/m/motley_crue/live_wire_btab.html ]
Bridge( part1) (x2)
G|------------------------------------------------------------------|
D|------------------------------------------------------------------|
A|------------------------------------------------------------------|
E|--5-6-6-5-6-6-5-6-6-5-6-6--9-7--5-6-6-5-6-6-5-6-6--7-9------------|

Part 2 (x1)
G|------------------------------------------------------------------|
D|------------------------------------------------------------------|
A|------------------------------------------------------------------|
E|0000000000000000000000-5-7-5-7------------------------------------|

G|------------------------------------------------------------------|
D|------------------------------------------------------------------|
A|------------------------------------------------------------------|
E|0000000000000000000000-----1/12-12-12-12-12-12-12-----------------|



chorus(x3)
G|------------------------------------------------------------------|
D|------------------------------------------------------------------|
A|------------6--------------4--------------2-------------3---------|
E|-5-5-5--5-5--5--3-3-3--3-3--3--1-1-1--1-1--1--2-2-2--2-2-2-2------|

Pause:

Ending
G|------------------------------------------------------------------|
D|------------------------------------------------------------------|
A|------------------------------------------------------------------|
E|-0-5-5-5-5-5-5--0-5-5-5-5-5-5--0-5-5-5-5-5-5--5-5-6-6-------------|

Pause:

G|------------------------------------------------------------------|
D|------------------------------------------------------------------|
A|------------------------------------------------------------------|
E|-0-5-5-5-5-5-5--0-5-5-5-5-5-5--0-5-5-5-5-5-5--5-5-6-6-------------|

Pause:

G|------------------------------------------------------------------|
D|------------------------------------------------------------------|
A|------------------------------------------------------------------|
E|-0-5-5-5-5-5-5--0-5-5-5-5-5-5--0-5-5-5-5-5-5--5-5-6-6-------------|

Pause:

G|------------------------------------------------------------------|
D|------------------------------------------------------------------|
A|------------------------------------------------------------------|
E|-0-5-5-5-5-5-5--0-5-5-5-5-5-5--0-5-5-5-5-5-5--6-6-5-5-3-3-2-2--5-5|
--------------------------------------------------------------------|
Well thats it a sick song by a sick band!
Comments