Motley Crue - Keep Your Eye On The Money Chords & Tabs

 

Keep Your Eye On The Money Chords & Tabs

Motley Crue Chords & Tabs

Version: 1 Type: Tab 0 ratings
1 star 2 stars 3 stars 4 stars 5 stars
comments

Keep Your Eye On The Money Tab

Band- Motley Crue
Song- Keep Your Eye On The Money

~- let ring
PM- palm mute

D tuning- DAFCGD

intro
d-----------------------------------------------------|
a-----------------------------------------------------|
f--5-----2~----5--7~----2-2-2--5--7---5--2---5--7--5~-|
c--5--5--2~----5--7~----2-2-2--5--7---5--2---5--7--5~-|
g--3--3--0~----3--5~----0-0-0--3--5---3--0---3--5--3~-|
d-----3-----------------------------------------------|

verse
d-----------------------------------------------------------------|
a-----------------------------------------------------------------|
f--2-2-2--5--7---5--2---5--7--5~----2-2-2--5--7---5--2---5--7--5~-|
c--2-2-2--5--7---5--2---5--7--5~----2-2-2--5--7---5--2---5--7--5~-|
g--0-0-0--3--5---3--0---3--5--3~----0-0-0--3--5---3--0---3--5--3~-|
d-----------------------------------------------------------------|

        PM             PM             PM             PM
d-------------------------------------------------------------|
a-------------------------------------------------------------|
f--2-----------5--7-----------5--2-----------5--7-----------5-|
c--2-----------5--7-----------5--2-----------5--7-----------5-|
g--0--0-0-0-0--3--5--0-0-0-0--3--0--0-0-0-0--3--5--0-0-0-0--3-|
d-------------------------------------------------------------|

        PM             PM             PM             PM
d-------------------------------------------------------------|
a-------------------------------------------------------------|
f--2-----------5--7-----------5--2-----------5--7-----------5-|
c--2-----------5--7-----------5--2-----------5--7-----------5-|
g--0--0-0-0-0--3--5--0-0-0-0--3--0--0-0-0-0--3--5--0-0-0-0--3-|
d-------------------------------------------------------------|

pre chorus- dont know yet

chorus
d----------------------------------------------------------------------------------|
a----------------------------------------------------------------------------------|
f---------------7--7-7-7-5-----------------7--5-----------------7--7-7-7-5----7--5-|
c--2--5-2-5-2---7--7-7-7-5----2--5-2-5-2---7--5----2--5-2-5-2---7--7-7-7-5----7--5-|
g--0--3-0-3-0---5--5-5-5-3----0--3-0-3-0---5--3----0--3-0-3-0---5--5-5-5-3----5--3-|
d----------------------------------------------------------------------------------|

intro again
d-----------------------------------------------------------------|
a-----------------------------------------------------------------|
f--2-2-2--5--7---5--2---5--7--5~----2-2-2--5--7---5--2---5--7--5~-|
c--2-2-2--5--7---5--2---5--7--5~----2-2-2--5--7---5--2---5--7--5~-|
g--0-0-0--3--5---3--0---3--5--3~----0-0-0--3--5---3--0---3--5--3~-|
d-----------------------------------------------------------------|
[ Tab from: http://www.guitartabs.cc/tabs/m/motley_crue/keep_your_eye_on_the_money_tab.html ]
verse
d-----------------------------------------------------------------|
a-----------------------------------------------------------------|
f--2-2-2--5--7---5--2---5--7--5~----2-2-2--5--7---5--2---5--7--5~-|
c--2-2-2--5--7---5--2---5--7--5~----2-2-2--5--7---5--2---5--7--5~-|
g--0-0-0--3--5---3--0---3--5--3~----0-0-0--3--5---3--0---3--5--3~-|
d-----------------------------------------------------------------|

        PM             PM             PM             PM
d-------------------------------------------------------------|
a-------------------------------------------------------------|
f--2-----------5--7-----------5--2-----------5--7-----------5-|
c--2-----------5--7-----------5--2-----------5--7-----------5-|
g--0--0-0-0-0--3--5--0-0-0-0--3--0--0-0-0-0--3--5--0-0-0-0--3-|
d-------------------------------------------------------------|

        PM             PM             PM             PM
d-------------------------------------------------------------|
a-------------------------------------------------------------|
f--2-----------5--7-----------5--2-----------5--7-----------5-|
c--2-----------5--7-----------5--2-----------5--7-----------5-|
g--0--0-0-0-0--3--5--0-0-0-0--3--0--0-0-0-0--3--5--0-0-0-0--3-|
d-------------------------------------------------------------|

pre chorus- dont know yet

chorus
d-------------------------------------------------------------------------------------------|
a-------------------------------------------------------------------------------------------|
f---------------7--7-7-7-5-----------------7--5-----------------7--7-7-7-5----7--5--2~---2~-|
c--2--5-2-5-2---7--7-7-7-5----2--5-2-5-2---7--5----2--5-2-5-2---7--7-7-7-5----7--5--2~---2~-|
g--0--3-0-3-0---5--5-5-5-3----0--3-0-3-0---5--3----0--3-0-3-0---5--5-5-5-3----5--3--0~---0~-|
d-------------------------------------------------------------------------------------------|

x4, PM the 7\'s
d----------------------------------------------------------------------------------|
a----------------------------------------------------------------------------------|
f----------------------------------------------------------------------------------|
c--7-7-5-7-7-7-5-7-7-7-5-7-7-7-5-7-7-7-5~--7-7-5-7-7-7-5-7-7-7-5-7-7-7-5-7-7-7-10~-|
g----------------------------------------------------------------------------------|
d----------------------------------------------------------------------------------|

broken down chorus
x4, PM the 7\'s
d-------------------------------------------------------------------------------|
a-------------------------------------------------------------------------------|
f-------------------------------------------------------------------------------|
c--7-7-5-7-7-7-5-7-7-7-5-7-7-7-5-7-7-7-5--7-7-5-7-7-7-5-7-7-7-5-7-7-7-5-7-7-7-5-|
g-------------------------------------------------------------------------------|
d-------------------------------------------------------------------------------|

solo- not yet

chorus out
d----------------------------------------------------------------------------------|
a----------------------------------------------------------------------------------|
f---------------7--7-7-7-5-----------------7--5-----------------7--7-7-7-5----7--5-|
c--2--5-2-5-2---7--7-7-7-5----2--5-2-5-2---7--5----2--5-2-5-2---7--7-7-7-5----7--5-|
g--0--3-0-3-0---5--5-5-5-3----0--3-0-3-0---5--3----0--3-0-3-0---5--5-5-5-3----5--3-|
d----------------------------------------------------------------------------------|
Comments