Motley Crue - If I Die Tomorrow Chords & Tabs

 

If I Die Tomorrow Chords & Tabs

Motley Crue Chords & Tabs

Version: 3 Type: Tab

If I Die Tomorrow Tab

   
#----------------------------------PLEASE NOTE---------------------------------#
#This file is the author's own work and represents their interpretation of the #
#song. You may only use this file for private study, scholarship, or research. #
#------------------------------------------------------------------------------##

                                IF I DIE TOMORROW
                           As recorded by Motley Crue
                     (From the 2004 Album RED, WHITE & CRUE)

Transcribed by andrew88
ridethelightning3"hotmail.com

Gtr I (C G C F A D)
Gtr II (C G C F A D)

   Intro
   4/4
    Gtr I
||---------------------------------------------|
||o--------------------------------------------|
||-----------0----------------------0----------|
||--------2-------2-----2--------2-----2-----2-|
||o----2-------------2--------2-----------2----|
||--2----------------------2-------------------|
|                                              |
||---------------------------------------------|
||o--------------------------------------------|
||-----------0----------------------0----------|
||--------2----------------------2-------------|
||o----2----------------------2----------------|
||--2----------------------2-------------------|


|------------------------------------------------||
|-----------------------------------------------o||
|----------0----------------------0--------------||
|----2----------2-----2-----4--------4-----4-----||
|-3-----3----------3-----5-----5--------5-------o||
|------------------------------------------------||
|                                                ||
|------------------------------------------------||
|-----------------------------------------------o||
|----------0----------------------0--------------||
|----2----------------------4--------------------||
|-3-----3----------------5-----5----------------o||
|------------------------------------------------||


|------|----------------------------------------|------------------------------|
|------|----------------------------------------|------------------------------|
|------|-7--9----7--9----7--9----7--9----9----9-|-7--9----7--9----11s12--11----|
|-12\--|-x--x----x--x----x--x----x--x----x----x-|-x--x----x--x-----xs=x---x----|
|-12\--|-5--7----5--7----5--7----5--7----7----7-|-5--7----5--7-----9s10---9----|
|-12\--|----------------------------------------|------------------------------|
|                                                                              |
|------|----------------------------------------|------------------------------|
|------|----------------------------------------|------------------------------|
|------|----------------------------------------|-5-----------------------7----|
|-12\--|-0--2----0--2----0--2----0--2----2----2-|-5-----------------------7----|
|-12\--|-0--2----0--2----0--2----0--2----2----2-|-3-----------------------5----|
|-12\--|-0--2----0--2----0--2----0--2----2----2-|-------------------------0----|


|----------------------------------------|----------------------------------|
|----------------------------------------|----------------------------------|
|-7--9----7--9----7--9----7--9----9----9-|-12--14----11--12----10s12--11----|
|-x--x----x--x----x--x----x--x----x----x-|--x---x-----x---x-----xs=x---x----|
|-5--7----5--7----5--7----5--7----7----7-|-10--12-----9--10-----9s10---9----|
|----------------------------------------|----------------------------------|
|                                                                           |
|----------------------------------------|----------------------------------|
|----------------------------------------|----------------------------------|
|----------------------------------------|--5--------------------------7----|
|-0--2----0--2----0--2----0--2----2----2-|--5--------------------------7----|
|-0--2----0--2----0--2----0--2----2----2-|--3--------------------------5----|
|-0--2----0--2----0--2----0--2----2----2-|-----------------------------0----|


   Verse
||-----------------------------------------------|
||o----------------------------------------------|
||-----------0----------------------0------------|
||--------2-------2-----2--------2-------2-----2-|
||o----2-------------2--------2-------------2----|
||--2----------------------2---------------------|
|                                                |
||-----------------------------------------------|
||o----------------------------------------------|
||-----------0----------------------0------------|
||--------2----------------------2---------------|
||o----2----------------------2------------------|
||--2----------------------2---------------------|
I wake up to find myself...

|----------------------------------------------||
|---------------------------------------------o||
|----------0--------------------0--------------||
|----2--------2-----2-----4--------4-----4-----||
|-3-----3--------3-----5-----5--------5-------o||
|----------------------------------------------||
|                                              ||
|----------------------------------------------||
|---------------------------------------------o||
|----------0--------------------0--------------||
|----2--------------------4--------------------||
|-3-----3--------------5-----5----------------o||
|----------------------------------------------||


|----------------------------------------------|
|----------------------------------------------|
|----------0----------------------0------------|
|----2----------2-----2-----2----------2-----2-|
|-3-----3----------3-----3-----3----------3----|
|----------------------------------------------|
|                                              |
|----------------------------------------------|
|----------------------------------------------|
|----------0----------------------0------------|
|----2----------------------2------------------|
|-3-----3----------------3-----3---------------|
|----------------------------------------------|
no one else...

|-------------------------------------------------|
|-------------------------------------------------|
|----------0----------------------0---------------|
|----4----------4-----4-----4---------4-----4-----|
|-5-----5----------5-----5-----5---------5--------|
|-------------------------------------------------|
|                                                 |
|-------------------------------------------------|
|-------------------------------------------------|
|----------0----------------------0---------------|
|----4----------------------4---------------------|
|-5-----5----------------5-----5------------------|
|-------------------------------------------------|


|----------------------------------------------|------------------------|
|----------------------------------------------|------------------------|
|----------0----------------------0------------|------------------------|
|----2----------2-----2-----2----------2-----2-|-4----------------------|
|-3-----3----------3-----3-----3----------3----|-5----------------------|
|----------------------------------------------|------------------------|
|                                              |                        |
|----------------------------------------------|------------------------|
|----------------------------------------------|------------------------|
|----------0----------------------0------------|------------------------|
|----2----------------------2------------------|-4----------------------|
|-3-----3----------------3-----3---------------|-5----------------------|
|----------------------------------------------|------------------------|
it's been so hard...


   Chorus
    Both Guitars
||--------------------------------------------|
||o-------------------------------------------|
||--------------------------------------------|
||--0--2----0--2----0--2----0--2----2----2--0-|
||o-0--2----0--2----0--2----0--2----2----2--0-|
||--0--2----0--2----0--2----0--2----2----2--0-|
If I die tomorrow...

|-----------------------------------------||
|----------------------------------------o||
|-5---------5----5----7----7----7----7----||
|-5---------5----5----7----7----7----7----||
|-3---------3----3----5----5----5----5---o||
|---------------------0----0----0----0----||


|------------------------------------------|
|------------------------------------------|
|-5--------5--------5------5--5----5----5--|
|-5--------5--------3------5--5----5----5--|
|-3--------3--------3------3--3----3----3--|
|------------------------------------------|
You're my everything...

|-----------------------------------------|
|-----------------------------------------|
|--7-------7--------7------7----7----7----|
|--7-------7--------7------7----7----7----|
|--5-------5--------5------5----5----5----|
|--0-------0--------0------0----0----0----|


|------|
|------|
|------|
|------|
|------|
|-0----|

Play verse and chorus again, then:
[ Tab from: http://www.guitartabs.cc/tabs/m/motley_crue/if_i_die_tomorrow_tab_ver_3.html ]
  PM...........................................|
|---------------------------------------------------|
|---------------------------------------------------|
|---------------------------------------------------|
|---------------------------------------------------|
|---------------------------------------------------|
|-0--0--0--0--0--0--0--0--0--0--0--0--0--0--0--0----|


 Guitar Break
|---------------------------------------------|
|---------------------------------------------|
|-7--9----7--9----7--9----7--9----9-----------|
|-x--x----x--x----x--x----x--x----x-----------|
|-5--7----5--7----5--7----5--7----7-----------|
|---------------------------------------------|
|                                             |
|                                 PM........| |
|---------------------------------------------|
|---------------------------------------------|
|---------------------------------------------|
|-0--2----0--2----0--2----0--2----------------|
|-0--2----0--2----0--2----0--2----------------|
|-0--2----0--2----0--2----0--2----2--2--2-2-2-|


|-----------------------------------------------|
|-----------------------------------------------|
|-7--9----7--9----11s12---11--------------------|
|-x--x----x--x-----xs=x----x--------------------|
|-5--7----5--7-----9s10----9--------------------|
|-----------------------------------------------|
|                                               |
|-----------------------------------------------|
|-----------------------------------------------|
|-5------------------------7--------7----7----7-|
|-5------------------------7--------7----7----7-|
|-3------------------------5--------5----5----5-|
|--------------------------0--------0----0----0-|


|-------------------------------------------|
|-------------------------------------------|
|-7--9----7--9----7--9----7--9-----9------9-|
|-x--x----x--x----x--x----x--x-----x------x-|
|-5--7----5--7----5--7----5--7-----7------7-|
|-------------------------------------------|
|                                           |
|                               PM........| |
|-------------------------------------------|
|-------------------------------------------|
|-------------------------------------------|
|-0--2----0--2----0--2----0--2--------------|
|-0--2----0--2----0--2----0--2--------------|
|-0--2----0--2----0--2----0--2--2--2--2-2-2-|


|------------------------------------------|
|------------------------------------------|
|-12--14----11--12----11s12--11------------|
|--x---x-----x---x-----xs=x---x------------|
|-10--12-----9--10-----9s10---9------------|
|------------------------------------------|
|                                          |
|------------------------------------------|
|------------------------------------------|
|--5--------------------------7----7--7----|
|--5--------------------------7----7--7----|
|--3--------------------------5----5--5----|
|-----------------------------0----0--0----|


|---------------------------------------|
|---------------------------------------|
|---------------------------------------|
|-5--------5----5--5----5--5----5----5--|
|-5--------5----5--5----5--5----5----5--|
|-5--------5----5--5----5--5----5----5--|
|                                       |
|---------------------------------------|
|---------------------------------------|
|---------------------------------------|
|-5--------5----5--5----5--5----5----5--|
|-5--------5----5--5----5--5----5----5--|
|-5--------5----5--5----5--5----5----5--|
I spent all my life...

|-------------10-----------------------10----------|
|-------10----------10-----------10----------10----|
|--7-----------------------7-----------------------|
|--------------------------------------------------|
|--------------------------------------------------|
|--------------------------------------------------|
|                                                  |
|--------------------------------------------------|
|--------------------------------------------------|
|--7-----------7-----7--7-----7---7-----7-----7----|
|--7-----------7-----7--7-----7---7-----7-----7----|
|--5-----------5-----5--5-----5---5-----5-----5----|
|--------------------------------------------------|
innocence...

|------------12-----------------------12-------|
|------12----------12-----------12----------12-|
|-9-----------------------9--------------------|
|----------------------------------------------|
|----------------------------------------------|
|----------------------------------------------|
|                                              |
|----------------------------------------------|
|----------------------------------------------|
|-9-----------9-----9--9-----9---9-----9-----9-|
|-9-----------9-----9--9-----9---9-----9-----9-|
|-7-----------7-----7--7-----7---7-----7-----7-|
|----------------------------------------------|
I've got nothing to lose...

                                        ~
|--------------10-----------12---------------|
|--------------------10----------------------|
|--12----12----------------------------------|
|---------------------------------------9----|
|--------------------------------------------|
|--------------------------------------------|
|                                            |
|                                       ~    |
|--------------------------------------------|
|--------------------------------------------|
|---5-----------5-----5--5------5--5---------|
|---5-----------5-----5--5------5--5---------|
|---3-----------3-----3--3------3--3----2----|
|--------------------------------------------|
I won't make the same mistakes...

|-----------5---------------------5------|
|------5---------5-----------5---------5-|
|-2--------------------2-----------------|
|----------------------------------------|
|----------------------------------------|
|----------------------------------------|
|                                        |
|----------------------------------------|
|----------------------------------------|
|-2---------2----2--2-----2--2----5------|
|-2---------2----2--2-----2--2----5------|
|-0---------0----0--0-----0--0----3------|
|----------------------------------------|
Now I know...

|-------------10---------------------10----------|
|-------10----------10---------10----------10----|
|--7----------------------7----------------------|
|------------------------------------------------|
|------------------------------------------------|
|------------------------------------------------|
|                                                |
|------------------------------------------------|
|------------------------------------------------|
|--7-----------7----------7-----------7----------|
|--7-----------7----------7-----------7----------|
|--5-----------5----------5-----------5----------|
|------------------------------------------------|
will be ok...


Guitar Solo
(This is kinda hard to hear so I just made the bits up in between the parts you can hear)
|---------------/14----/15------|
|-/15----/17--------------------|
|-------------------------------|
|-------------------------------|
|-------------------------------|
|-------------------------------|


                                           ~~
|--17b19=========17b19r=17----15----17----------|
|-----------------------------------------15----|
|-----------------------------------------------|
|-----------------------------------------------|
|-----------------------------------------------|
|-----------------------------------------------|


|-------------------------------------------------------------------------|
|-15-----------15-----------15-----------15--------------15---------------|
|-14b16--------14b16--------14b16--------14b16----14b16------14b16r14--12-|
|-------------------------------------------------------------------------|
|-------------------------------------------------------------------------|
|-------------------------------------------------------------------------|


                                         ~~
|---------------------------------------------|
|---------15---------15-----------------------|
|--14b16------14b16------14b16r=14--12--14----|
|---------------------------------------------|
|---------------------------------------------|
|---------------------------------------------|


Tablature Legend
----------------
 h   - hammer-on
 p   - pull-off
 b   - bend
 pb  - pre-bend
 r   - bend release (if no number after the r, then release immediately)
 /\  - slide into or out of (from/to "nowhere")
 s   - legato slide
 S   - shift slide
  - natural harmonic
[n]  - artificial harmonic
n(n) - tapped harmonic
 ~   - vibrato
 tr  - trill
 T   - tap
 TP  - trem. picking
 PM  - palm muting
\n/  - tremolo bar dip; n = amount to dip
 \n  - tremolo bar down
 n/  - tremolo bar up
/n\  - tremolo bar inverted dip
 =   - hold bend; also acts as connecting device for hammers/pulls
 <>  - volume swell (louder/softer)
 x   - on rhythm slash represents muted slash
 o   - on rhythm slash represents single note slash

Misc Legend
-----------
 |  - bar
||  - double bar
||o - repeat start
o|| - repeat end
*|  - double bar (ending)
 :  - bar (freetime)
 $  - Segno
 &  - Coda
Tempo markers -  = BPM(8/16=s8/s16), where s8 = swing 8ths, s16 = swing 16ths


***************************************************************************************
* Generated using Power Tab Editor by Brad Larsen - http://powertab.guitarnetwork.org *
***************************************************************************************