Motley Crue - I Will Survive Chords & Tabs

 

I Will Survive Chords & Tabs

Motley Crue Chords & Tabs

Version: 1 Type: Tab 0 ratings
1 star 2 stars 3 stars 4 stars 5 stars
comments

I Will Survive Tab

I Will Survive
motley crue

PM- palm mute
\\\\- slide down
/- slide up
x- palm mute
br- bend release

d tuning- dafcgd

intro- x4
d-------------------------------------------------------------------|
a-------------------------------------------------------------------|
f-------------------9-8--------------------------9-8----------------|
c-------------------7-7--------------------------7-7----------------|
g-----/--0-0-0-0-0-------5-5-7br-5----0-0-0-0-0---------------------|
d-----------------------------------------------------0-5-5-8-8-7-7-|

verse- x2
d-----------------------------------------------------|
a-----------------------------------------------------|
f---------9-7----------------------9-7----------------|
c---------7-5--5-5-7br-5-----------7-5----------------|
g--0-0-0--------------------0-0-0---------------------|
d---------------------------------------0-5-5-8-8-7-7-|

pre chorus- x1
d-------------------------|
a-------------------------|
f-------------------------|
c--3--5---10--9--7--5--12-|
g--3--5---10--9--7--5--12-|
d--1--3---8---7--5--3--10-|

chorus- x2
d-------------------------------|
a-------------------------------|
f--2---5-7---7---10--9--7--5/12-|
c--2---5-7---7---10--9--7--5/12-|
g--0---3-5---5---8---7--5--3/10-|
d-------------------------------|

intro again- x4
d-------------------------------------------------------------|
a-------------------------------------------------------------|
f-------------9-8--------------------------9-8----------------|
c-------------7-7--------------------------7-7----------------|
g--0-0-0-0-0-------5-5-7br-5----0-0-0-0-0---------------------|
d-----------------------------------------------0-5-5-8-8-7-7-|

verse- x2
d-----------------------------------------------------|
a-----------------------------------------------------|
f---------9-7----------------------9-7----------------|
c---------7-5--5-5-7br-5-----------7-5----------------|
g--0-0-0--------------------0-0-0---------------------|
d---------------------------------------0-5-5-8-8-7-7-|
[ Tab from: http://www.guitartabs.cc/tabs/m/motley_crue/i_will_survive_tab.html ]
pre chorus- x1
d-------------------------|
a-------------------------|
f-------------------------|
c--3--5---10--9--7--5--12-|
g--3--5---10--9--7--5--12-|
d--1--3---8---7--5--3--10-|

chorus- x2
d-------------------------------|
a-------------------------------|
f--2---5-7---7---10--9--7--5/12-|
c--2---5-7---7---10--9--7--5/12-|
g--0---3-5---5---8---7--5--3/10-|
d-------------------------------|

interlude
    PM----------------------------------------------|
d---------------------------------------------------|
a---------------------------------------------------|
f--14-14-14-14-14-14-14-14-14-14-14-14-14-14-14-14--|
c--14-14-14-14-14-14-14-14-14-14-14-14-14-14-14-14--|
g--12-12-12-12-12-12-12-12-12-12-12-12-12-12-12-12--|
d---------------------------------------------------|

  all PM
d----------------------------------------------------------------------------|
a----------------------------------------------------------------------------|
f--14-14-14-14-14-14-14-14--12-12-12-12-12-12-12-12--10-10-10-10-10-10-10-10-|
c--14-14-14-14-14-14-14-14--12-12-12-12-12-12-12-12--10-10-10-10-10-10-10-10-|
g--12-12-12-12-12-12-12-12--10-10-10-10-10-10-10-10--8--8--8--8--8--8--8--8--|
d----------------------------------------------------------------------------|

   all PM
d-------------------------------------|
a-------------------------------------|
f--9-9-9-9-9-9-9-9--------------------|
c--9-9-9-9-9-9-9-9--------------------|
g--7-7-7-7-7-7-7-7----off to the solo-|
d-------------------------------------|

solo-

chorus- x2
d-------------------------------|
a-------------------------------|
f--2---5-7---7---10--9--7--5/12-|
c--2---5-7---7---10--9--7--5/12-|
g--0---3-5---5---8---7--5--3/10-|
d-------------------------------|

outro
d-----------------------------------------------|
a-----------------------------------------------|
f--10--9--7--5---10--9--7--5---10--9--7--5--7-5-|
c--10--9--7--5---10--9--7--5---10--9--7--5--7-5-|
g--8---7--5--3---8---7--5--3---8---7--5--3--5-3-|
d-----------------------------------------------|

                         at the very end of the song
d---------------------|-------|
a---------------------|-------|
f---------------------|-------|
c-----------------7-7-|-----7-|
g-----------------7-7-|-----7-|
d--0-5-5-8-8-7-7--5-5-|-----5-|

Check out my other crue tabs!
Comments