Motley Crue - Hooligans Holiday Chords & Tabs

 

Hooligans Holiday Chords & Tabs

Motley Crue Chords & Tabs

Version: 1 Type: Tab 0 ratings
1 star 2 stars 3 stars 4 stars 5 stars
comments

Hooligans Holiday Tab

   
Song: Hooligan's Holiday
Artist: Motley Crue
Album: Motley Crue (1994)
As tabbed by Joe Muggah
joe_the_man3@hotmail.com

Dropped D and tuned down a step

` = squeel the string

Intro A (Guitar 1)
d--1---0------------------------------------------------3--
A--1---1---------------1-----1-----1----1-----1-----1---3--
F--2---0---3---3p0-------0-----0----------0-----0-------0--
C--3---2---3---3p0---3-----3-----3----2-----2-----2--------
G----------------------------------------------------------
C----------------------------------------------------------

Intro B (Guitar 2)                              Fill
d-----8-------8------8---8-----8-----8--10---|-------------
A-------8-------8----------8-----8------12---|--8----------
F--10-----10------10---9-----9-----9----12---|---7---------
C--------------------------------------------|----5--------
G--------------------------------------------|-----5-------
C--------------------------------------------|------5------

Riff 1A (Guitar 1)
d----------------------------------------------------------
A----------------------------------------------------------
F------3-0---------0------6-5--3-0--3-0-----3-0---------0--
C-----------3-0--3-------------------------------3-0--3----
G----------------------------------------------------------
C--5-------------------5-----------------5-----------------

(continued)
d----------------------------------------------------------
A----------------------------------------------------------
F------------3^---0----------------------------------------
C--3m-4m-5m---------3--------------------------------------
G--3m-4m-5m------------------------------------------------
C--3m-4m-5m------------------------------------------------

Riff 1B (Guitar 2)
d----------------------------------------------------------
A----------------------------------------------------------
F--------------------------------------------------3^--0---
C--------------------------------------------------------3-
G--------------------------------------------3-4-5---------
C-5-5-5-5-5-5-5-5-5-5-5-5-6--6-5-5-5-5-5-5-5---------------

Verse
d----------------------------------------------------------
A----------------------------------------------------------
F----------------------------------------------------------
C--5\---5m-5m-5m-5m------5m-5m--5m-5m---5\---3m-3m--3m--3m-
G--5\---5m-5m-5m-5m------5m-5m--5m-5m---5\---3m-3m--3m--3m-
C--5\---5m-5m-5m-5m--8^--5m-5m--5m-5m---5\---3m-3m--3m--3m-

Pre-Chorus
d----------------------------------------------------------
A----------------------------------------------------------
F----------------------------------------------------------
C--8m-8m-8m-8m-8m-8m-8m-8m--7m-7m-7m-7m-7m-7m-7m-7m--------
G--8m-8m-8m-8m-8m-8m-8m-8m--7m-7m-7m-7m-7m-7m-7m-7m--------
C--8m-8m-8m-8m-8m-8m-8m-8m--7m-7m-7m-7m-7m-7m-7m-7m--0-----
("Everybody wants a piece of the action...")

(continued)
d----------------------------------------------------------
A----------------------------------------------------------
F-----3-0---------3----------------------------------------
C----------0-3--0---5\-3-/5---8m-8m-8m-8m-8m-8m-8m-8m------
G-----------------------------8m-8m-8m-8m-8m-8m-8m-8m------
C--5--------------------------8m-8m-8m-8m-8m-8m-8m-8m------

(continued)
d----------------------------------------------------------
A----------------------------------------------------------
F---------------------------7----------7-------7-------7---
C--7m-7m-7m-7m-7m-7m-7m-7m--7----------7-------7-------7---
G--7m-7m-7m-7m-7m-7m-7m-7m--5----5-----5-------5-------5---
C--7m-7m-7m-7m-7m-7m-7m-7m-------0-------0m-0m---0m-0m-----

(continued)
d----------------------------------------------------------
A----------------------------------------------------------
F--------7-------7----7------------------------------------
C--------7-------7----7------------------------------------
G--------5-------5----5------------------------------------
C--0m-0m---0m-0m---0m--------------------------------------

Chorus A (Guitar 1)
d--1-----0-----3----------1-----0-----3--------------------
A--1-----1-----3----------1-----1-----3--------------------
F--2-----0-----0----------2-----0-----0--------------------
C--3-----2----------------3-----2--------------------------
G----------------------------------------------------------
C----------------------------------------------------------
[ Tab from: http://www.guitartabs.cc/tabs/m/motley_crue/hooligans_holiday_tab.html ]
Chorus B (Guitar 2)
d----------------------------------------------------------
A----------------------------------------------------------
F----------------------------------------------------------
C--x-x--5-5--x-5--x-5--x-5-5-5-5--x-x--5-5-----------------
G--x-x--5-5--x-5--x-5--x-5-5-5-5--x-x--5-5-----------------
C--x-x--5-5--x-5--x-5--x-5-5-5-5--x-x--5-5--3-4-5-8^--5-3--

Bridge
d--------|-------------------------------------------------
A--6-----|-------------------------------------------------
F---5----|-------------------------------------------------
C----3---|--x--3--3--x--3--x--3---x--3--3--x--3--x--3------
G-----3--|--x--3--3--x--3--x--3---x--3--3--x--3--x--3------
C------3-|--x--3--3--x--3--x--3---x--3--3--x--3--x--3------

Riff 2
d----------------------------------------------------------
A----------------------------------------------------------
F----3p0----------------------3p0--------------------------
C-----------3p0----3/5v-------------3p0---3/5v-------------
G----------------------------------------------------------
C--5------5------5----------5-----5-----5------------------

Solo
d-------------------------------------------13----13-------
A--------------11\10------10\8-----------13----13----------
F--/12v---------------10---------8v--\---------------------
C----------------------------------------------------------
G----------------------------------------------------------
C----------------------------------------------------------

(continued)
d--18\17-------17\15------13/15-/17\15---------------------
A--20\18--18---18\16--16-----------------------------------
F---------17----------15-----------------------------------
C----------------------------------------------------------
G----------------------------------------------------------
C----------------------------------------------------------

Riff 3
d----------------------------------------------------------
A---6-5-3--5-3---------------------------------------------
F--------------3-------------------------------------------
C----------------------------------------------------------
G----------------------------------------------------------
C----------------------------------------------------------

Outro
d--------------------------15`-----------------------------
A--15v---15\13--11--13/15-------11^------11----13----14----
F-------------------------------------------12----12----12-
C----------------------------------------------------------
G----------------------------------------------------------
C----------------------------------------------------------

(continued)
d--------13^--15`--13--15--18p15--13--13p12p10-------------
A-15-------------------------------------------11p10p8h11p8
F----12----------------------------------------------------
C----------------------------------------------------------
G----------------------------------------------------------
C----------------------------------------------------------

(continued)
d----------------------------------------------------------
A----------------------------------------------------------
F--10p9p7h10p7-------7v------------------------------------
C--------------8p7p5---------------------------------------
G----------------------------------------------------------
C------------------------10h12p8-10h12p8-10h12p8-10h12p8---

(continued)
d--------------------------------------13-15---------------
A--------------------------------14-15---------------------
F-----------------10m-12m-14m-15----------------12^--15`---
C---------8m-10m-------------------------------------------
G--8m-10m--------------------------------------------------
C----------------------------------------------------------

(continued)
d----------------------------------------------------------
A----------------------------------------------------------
F--15\--15\12----------------------------------------------
C----------------------------------------------------------
G----------------5^---3^-----------------------------------
C--------------------------5^------------------------------

Intro A, B
Fill
Riff 1A, 1B
Verse
Fill
Riff 1A, 1B
Pre-Chorus
Chorus A, B
Fill
Riff 1A, 1B
Pre-Chorus
Chorus A, B
Bridge
Fill
Riff 2
Bridge, Solo
Riff 2
Riff 3 (over last bit of Riff 2)
Riff 1A, 1B
Pre-Chorus
Chorus A, B
Chorus A, B, Outro

The Outro goes for a bit longer, but it becomes very hard to
hear at the end because of the fade-out.
Comments