Motley Crue - Hell On High Heels Chords & Tabs

 

Hell On High Heels Chords & Tabs

Motley Crue Chords & Tabs

Version: 1 Type: Bass Tab 0 ratings
1 star 2 stars 3 stars 4 stars 5 stars
comments

Hell On High Heels Bass Tab

   
Hell on high heels by Motley Crue
Standard Tuning

(Intro) (00:08) x2
G------------------------------------------------------------------|
D------------------------------------------------------------------|   
A------------------------------------------------------------------|     
E-4-4-4-4-4-4-4-4-4-4-4-4-4-4-4-4-4-4-4-4-4-4-4-4-4-4-4-4-4-4-4-4--| 
            								
Verse  x2
G------------------------------------------------------------------|
D------------------------------------------------------------------|
A------------------------------------------------------------------|
E-/7-7-7-7-7-7-7-7-7-7-7-7-7-7-7-7-7-7-7-7-7-7-7-7-7-7-7-7-7-7-7-7-|

G------------------------------------------------------------------|
D------------------------------------------------------------------|
A------------------------------------------------------------------|
E-4-4-4-4-4-4-4-4-4-4-4-4-4-4-4-4-4-4-4-4-4-4-4-4-4-4-4-4-4-4-4-4--|

G--------------------------|---------------------------------------|
D--------------------------|---------------------------------------|
A--------------------------|---------------------------------------|
E-/9----2-4--4-4-4-4-4-4-4-|-0-0-0-0-0-0-0-0-0-0-0-0-0-0-0-0-------|
  \_______________________/
              x3

Chorus x2
G------------------------------------------------------------------|
D------------------------------------------------------------------|
A-2--2-2-2-------------------------------2-------------------------|
E----------2--4--4-4-4-4-2--4--4-4-4-4-2----1-2-1-4-1-2-1----------|
[ Tab from: http://www.guitartabs.cc/tabs/m/motley_crue/hell_on_high_heels_btab.html ]
G------------------------------------------------------------------|
D------------------------------------------------------------------|   
A------------------------------------------------------------------|     
E-4-4-4-4-4-4-4-4-4-4-4-4-4-4-4-4-4-4-4-4-4-4-4-4-4-4-4-4-4-4-4-4--| 

Verse  x2
G------------------------------------------------------------------|
D------------------------------------------------------------------|
A------------------------------------------------------------------|
E-/7-7-7-7-7-7-7-7-7-7-7-7-7-7-7-7-7-7-7-7-7-7-7-7-7-7-7-7-7-7-7-7-|

G--------------------------|---------------------------------------|
D--------------------------|---------------------------------------|
A--------------------------|---------------------------------------|
E-/9----2-4--4-4-4-4-4-4-4-|-0-0-0-0-0-0-0-0-0-0-0-0-0-0-0-0-------|
  \_______________________/
              x3

Chorus x4
G------------------------------------------------------------------|
D------------------------------------------------------------------|
A-2--2-2-2-------------------------------2-------------------------|
E----------2--4--4-4-4-4-2--4--4-4-4-4-2----1-2-1-4-1-2-1----------|

(During solo) x4
G------------------------------------------------------------------|
D------------------------------------------------------------------|
A-2--2-2-2-------------------------------2-------------------------|
E----------2--4--4-4-4-4-2--4--4-4-4-4-2----1-2-1-4-1-2-1----------|

(Chorus) x8
G------------------------------------------------------------------|
D------------------------------------------------------------------|
A-2--2-2-2-------------------------------2-------------------------|
E----------2--4--4-4-4-4-2--4--4-4-4-4-2----1-2-1-4-1-2-1----------|

Thanks, please rate it after you learn it. 
_TheBassist01_
Comments