Motley Crue - Hammered Chords & Tabs

 

Hammered Chords & Tabs

Motley Crue Chords & Tabs

Version: 1 Type: Bass Tab 0 ratings
1 star 2 stars 3 stars 4 stars 5 stars
comments

Hammered Bass Tab

Hammered
By: motley crue
tabbed by silkmoth- bighabit69@iamwasted.com

 Intro

|---------|----------|------------|----------------|
|---------|----------|------------|----------------|
|---------|----------|------------|----------------|
|---------|--------0-|-(0)--------|-(0)----(0)---0-||-------------------------------------|-------------------------------------|
|-------------------------------------|-------------------------------------|
|-----------------5-(5)---7-5---5s4---|-----------------5-(5)---7-5---5s4---|
|-(0)-0-3-0-5-6-7-------7-----7-----0-|-(0)-0-3-0-5-6-7-------7-----7-----0-|


|-------------------------------------|-------------------------------------||
|-------------------------------------|-------------------------------------||
|-----------------5-(5)---7-5---5s4---|-----------------5-(5)---7-5---5s4---||
|-(0)-0-3-0-5-6-7-------7-----7-----0-|-(0)-0-3-0-5-6-7-------7-----7-----0-||


 1st Verse

|----------------|--------------------------|
|----------------|--------------------------|
|--------------7-|-(7)----(7)-7-5---5-------|
|-(0)----(0)-----|----------------7---7-3-0-|


|--------------------------------------|
|--------------------------------------|
|-----------------5-(5)---7-5---5s4----|
|-(0)-0-3-0-5-6-7-------7-----7-----0--|


                              
|-------------------------------------|
|-------------------------------------|
|-----------------5-(5)---7-5---5s4---|
|-(0)-0-3-0-5-6-7-------7-----7-----0-|


       
|----------------|---------------------------|
|----------------|---------------------------|
|--------------7-|-(7)----(7)-7-5---5--------|
|-(0)----(0)-----|----------------7---7-3-0--|


|-------------------------------------|-------------------------------------|
|-------------------------------------|-------------------------------------|
|-----------------5-(5)---7-5---5s4---|-----------------5-(5)---7-5---5s4---|
|-(0)-0-3-0-5-6-7-------7-----7-----0-|-(0)-0-3-0-5-6-7-------7-----7-----0-|


                                                     Chorus

|------------------------|-------------------------||--------------------|
|------------------------|-------------------------||--------------------|
|----------------0-2-0---|------------7-5---5-7--3-||-(3)-3-3-3-3-3-3-3--|
|-(0)----0-0-3-3-------3-|-(3)-3-3-3------7--------||--------------------||-------------------------|---------------------------|
|-------------------------|-------5-(5)-------------5-|
|-5-5-5-5-5-5-5-5-5-5-5-5-|-------------7-(7)-5-6-7---|
|-------------------------|-5-6-7---------------------|


|----------------------------|
|-------5--5-----------------|
|------------7-(7)-5-5-7\----|
|-5-6-7----------------------|


                                                2nd Verse

|-------------------|-------------------------||--------------|
|---------5s7s5-5-3-|-------------------------||--------------|
|-3-3-3-3-----------|-5-5-5-5-5-5-5-5-5-5-5-5-||------------7-|
|-------------------|-------------------------||-0----(0)-----|


|--------------------------|-------------------------------------|
|--------------------------|-------------------------------------|
|-(7)----(7)-7-5---5-------|-----------------5-(5)---7-5---5s4---|
|----------------7---7-3-0-|-(0)-0-3-0-5-6-7-------7-----7-----0-|


|--------------------------------------|
|--------------------------------------|
|-----------------5-(5)---7-5---5s4----|
|-(0)-0-3-0-5-6-7-------7-----7-----0--||----------13-(13)--13---|--------------------------|
|----------14-(14)--14---|--------------------------|
|------------------------|------------7-5---5---7---|
|-(0)--(0)-------------0-|-(0)----(0)-----7---7---0-|


|--------------------|-----------------|
|--------------------|-----------------|
|--------------------|-----------------|
|-(0)--(0)-0-0-0-0-0-|-0-0-0-0-0-0-0-0-|

[ Tab from: http://www.guitartabs.cc/tabs/m/motley_crue/hammered_btab.html ]
                                                     Chorus
                                              
|------------------------|-------------------------||--------------------|
|------------------------|-------------------------||--------------------|
|----------------0-2-0---|------------7-5---5-7--3-||-(3)-3-3-3-3-3-3-3--|
|-(0)----0-0-3-3-------3-|-(3)-3-3-3------7--------||--------------------||-------------------------|---------------------------------------|
|-------------------------|-------5b5.5-(5)-------------5b5.5-(5)-|
|-5-5-5-5-5-5-5-5-5-5-5-5-|-----------------7-(7)-5-6-7-----------|
|-------------------------|-5-6-7---------------------------------|


|---------------------------|
|-------5--5----------------|
|------------7-(7)-5-5-7\---|
|-5-6-7---------------------||-------------------|-------------------------|-------------------------|
|---------5s7s5-5-3-|-------------------------|-------------------------|
|-3-3-3-3-----------|-5-5-5-5-5-5-5-5-5-5-5-5-|-2-2-2-2-2-2-2-2-2-2-2-2-|
|-------------------|-------------------------|-------------------------|


|-----------------------------|
|-----------------------------|
|-3-3-3-3-3-3-5-5-5-5-5-5-5-5-|
|-----------------------------|


   Interlude

                                                    4x
||----------------------|---------------------------||
||o---------------------|--------------------------o||
||o-7--5----------------|-7-7-7-7-5----------------o||
||--------5b6-(5)-5-3-0-|------------5b6-(5)-5-3-0--||


 Bridge
|-9--7----------------|-9-9-9-9-7----------------|
|-------7b8-(7)-7-5---|------------7b8-(7)-7-5---|
|-------------------7-|------------------------7-|
|---------------------|--------------------------|


                                                     4x
||----------------------|----------------------------||
||o---------------------|---------------------------o||
||o-7--5----------------|-7-7-7-7-5-----------------o||
||--------5b6-(5)-5-3-0-|------------5b6-(5)-5-3-0---||


|---------------------|-------------------------7-7-7-9-||
|---------------------|---------5-5-5-7-7-7-9-9---------||
|-7--5----------------|-7-7-7-7-------------------------||
|-------5b6-(5)-5-3-0-|---------------------------------||


   Guitar Solo

||----------------------|--------------------------|
||o---------------------|--------------------------|
||o-7--5----------------|-7-7-7-7-5----------------|
||--------5b6-(5)-5-3-0-|------------5b6-(5)-5-3-0-|


|---------------------|---------------------------||
|---------------------|--------------------------o||
|-7--5----------------|-7-7-7-7-5----------------o||
|-------5b6-(5)-5-3-0-|------------5b6-(5)-5-3-0--||


 Chorus

|---------------------|--------------------|
|---------------------|--------------------|
|-3-3-3-3-3-3-3---3h5-|-5-5-5-5-5-5-5-5-5\-|
|---------------5-----|--------------------||-------------------------|-------------------------------|
|-------------------------|-------------------------------|
|-2-2-2-2-2-2-2-2-2-2-2-2-|-3-3-3-3-3-3-5-5-5-5-5-5-5-5---|
|-------------------------|-------------------------------|


   Outro

                                                    6x
||----------------------|---------------------------||
||o---------------------|--------------------------o||
||o-7--5----------------|-7-7-7-7-5----------------o||
||--------5b6-(5)-5-3-0-|------------5b6-(5)-5-3-0--||                                                                       4x
||------------|-------------------|--------------|---------------------||
||o-----------|-------------------|--------------|--------------------o||
||o-7----5----|-------------------|--------------|--------------------o||
||------------|-5b6-(5)--5--3-0---|-7-7-7-7-5----|-5b6-(5)--5--3-0-----||


|-----------|-------------------|--------------|
|-----------|-------------------|--------------|
|-7----5----|-------------------|-7-7-7-7-5----|
|-----------|-5b6-(5)--5--3-0---|--------------|


|------------|------------|------------------------*|
|------------|------------|-7b8==(7)r(7)p5---5-----*|
|-(5)--------|-(5)--------|----------------7-------*|
|------------|------------|--------------------0---*|
Comments