Motley Crue - God Bless The Children Of The Beast Chords & Tabs

 

God Bless The Children Of The Beast Chords & Tabs

Motley Crue Chords & Tabs

Version: 1 Type: Tab 0 ratings
1 star 2 stars 3 stars 4 stars 5 stars
comments

God Bless The Children Of The Beast Tab

   
#-----------------------------PLEASE NOTE-------------------------------------#
#This OLGA file is the author's own work and represents their interpretation  #
#of the song. You may only use this file for private study, scholarship, or   #
#research. Remember to view this file in Courier, or some other monospaced    #
#font. See http://www.olga.net/faq/ for more information.                     #
#-----------------------------------------------------------------------------#

Date: Fri, 18 Aug 2000 15:50:56 -0400
From: Cristian "'Sócrates'" Franco 
Subject: m/motley_crue/god_bless_the_children_of_the_beast.tab

GOD BLESS THE CHILDREN OF THE BEAST
MÖTLEY CRÜE

Transcribed By Sócrates

sometimes in ICQ: 84587081 (Socrates)
http://www.geocities.com/socratesworld

       This one is an instrumental theme, with the
basic chords: Am-G-F-E.
I think the transcription is Ok, some years ago I
tried to figure out this
theme but I didn't, since have 4 voices. Yes, I think
there are 4 voices:
the first guitar played with a higher octave, it means
two sounds, and
then the second guitar played by the 3rd of the guitar
1 and a higher
octave too.
   The octave high from the guitars you can make it
with any multieffect.
The theme have also a keyboard and a 12 strings guitar
which I'm not
transcribed.
...One last thing. This theme I transcribed with my
guitar tuned in E, in
fact I don't know if Mick did play tuned at D as the
rest of the Mötley's
songs. Anyway, it sounds fine.
I hope you enjoy it, and any questions just email me;)


   Gtr.1
    ~~~~~~~                            ~~~~~~
E-|---------------------------------|--------------------------------|
B-|---------------------------------|--------------------------------|
G-|-9-------9--10----9--------------|--------9--10----9--------------|
D-|---------------12----10-12-9-10--|--9-----------12----10-12-9--10-|
A-|---------------------------------|--------------------------------|
E-|---------------------------------|--------------------------------|
  |Gtr.2                            |                 
              |
  | ~~~~~~~                         | ~~~~~~~         
              |
E-|---------------------------------|--------------------------------|
B-|---------------------------------|--------------------------------|
G-|---------------------------------|--------------------------------|
D-|-10------10-12-9--10----9--------|--------10-12-9--10----9--------|
A-|---------------------12---10-12--|-10-----------------12----10-12-|
E-|---------------------------------|--------------------------------|


    ~~~~~~~
E-|---------------------------------|--------------------------------|
B-|---------------------------------|-------------------10-9-12-10---|
G-|---------9--10----9--------------|-------------10-9---------------|
D-|---------------12----10-12-9--10-|-------10-9---------------------|
A-|-12------------------------------|-12-11--------------------------|
E-|---------------------------------|--------------------------------|
  |                                 |                 
              |
  | ~~~~~~~                         |                 
              |
E-|---------------------------------|--------------------------------|
B-|---------------------------------|--------------------------------|
G-|---------------------------------|-------------------10-9-12-10---|
D-|---------10-12-9--10----9--------|-------------12-10--------------|
A-|-8-------------------12----10-12-|-------12-11--------------------|
E-|---------------------------------|-13-12--------------------------|
[ Tab from: http://www.guitartabs.cc/tabs/m/motley_crue/god_bless_the_children_of_the_beast_tab.html ]
                                            trill
E-|-------10----12-10--13-12--15-13--17--|--15^17---12-13-15-13-12----|
B-|-13-12----13--------------------------|-------------------------15-|
G-|--------------------------------------|----------------------------|
D-|--------------------------------------|----------------------------|
A-|--------------------------------------|----------------------------|
E-|--------------------------------------|----------------------------|
  |                                      |            
               |
  |                                      |  trill     
               |
E-|--------------------10-----12-10--13--|--12^13---------------------|
B-|-10-8--12-10-13-12-----13-------------|----------13-15-17-15-13----|
G-|--------------------------------------|-------------------------16-|
D-|--------------------------------------|----------------------------|
A-|--------------------------------------|----------------------------|
E-|--------------------------------------|----------------------------|

    ~~~~~
E-|--------12-13-15-13-12-----|--------------------------12-----------|
B-|-----------------------15--|-----------------12--------------------|
G-|-14------------------------|---------13----------------------------|
D-|---------------------------|-14------------------------------------|
A-|---------------------------|---------------------------------------|
E-|---------------------------|---------------------------------------|
  |                           |                       
               |
  | ~~~~                      |                       
               |
E-|---------------------------|---------------------------------------|
B-|--------13-15-17-15-13-----|--------------------------12-----------|
G-|-----------------------16--|-----------------13--------------------|
D-|-15------------------------|---------14----------------------------|
A-|---------------------------|-14------------------------------------|
E-|---------------------------|---------------------------------------|


E-|-12---------------17---|-------------------15--|------------------13-|
B-|----13--------13-------|--15-------------------|--13-----------------|
G-|*------14--14----------|-----16---------16-----|-----14--------14----|
D-|*----------------------|--------17---17--------|--------15--15-------|
A-|-----------------------|-----------------------|---------------------|
E-|-----------------------|-----------------------|---------------------|
  |                       |                       |   
                 |
  |                       |                       |   
                 |
E-|-----------------------|-----------------------|---------------------|
B-|-13---------------17---|--12---------------15--|---------------------|
G-|*---14--------14-------|-----12---------12-----|--14--------------17-|
D-|*------14--14----------|--------12---12--------|-----15--------15----|
A-|-----------------------|-----------------------|--------15--15-------|
E-|-----------------------|-----------------------|---------------------|

                         ...God Bless the Children of
the Beast.
E-|----------------------|--------||
B-|-12--------12---------|--------||
G-|----13--------13-----*|--------||
D-|-------14--------14--*|-14-----||
A-|----------------------|--------||
E-|----------------------|--------||
  |                      |        ||
E-|----------------------|--------||
B-|----------------------|--------||
G-|-13--------13--------*|--------||
D-|----14--------14-----*|-14-----||
A-|-------14--------14---|--------||
E-|----------------------|--------||


=====
"Quedé desfallecido de escudriñar la verdad"
SÓCRATES
Comments