Motley Crue - Generation Swine Chords & Tabs

 

Generation Swine Chords & Tabs

Motley Crue Chords & Tabs

Version: 1 Type: Tab 0 ratings
1 star 2 stars 3 stars 4 stars 5 stars
comments

Generation Swine Tab

   
generation swine
motley crue

drop d tuning- DGCFAD

/- slide up
\-slide down
b-bend

just the intro and what not for now

intro

x4
d-------------------------|
g-------------------------|
c-------------------------|
f--/-9--10--11--12--13-14-|
a--/-7--8---9---10--11-12-|
d-------------------------|
[ Tab from: http://www.guitartabs.cc/tabs/m/motley_crue/generation_swine_tab.html ]
d--------------------------------------|
g--------------------------------------|
c--------------------------------------|
f--77-7\6\5-44---5\4\3-22--5\4\3-4-3-5-|
a--55-5\4\3-22---3\2\1-00--3\2\1-2-1-3-|
d--------------------------------------|


after the interlude comes this

d---------------------------|
g---------------------------|
c--19b-19-19-19-19-19-19-19-|
f---------------------------|
a---------------------------|
d---------------------------|

start out slow then pick up speed
d--------------------------------------|
g--------------------------------------|
c--------------------------------------|
f--77-7-6-5-44---5-4-3-22--5-4-3-4-3-5-|
a--55-5-4-3-22---3-2-1-00--3-2-1-2-1-3-|
d--------------------------------------|
Comments