Motley Crue - Generation Swine Chords & Tabs

 

Generation Swine Chords & Tabs

Motley Crue Chords & Tabs

Version: 1 Type: Bass Tab 0 ratings
1 star 2 stars 3 stars 4 stars 5 stars
comments

Generation Swine Bass Tab

   
Band- Motley Crue
Song- Generation Swine

Tuning: Standard (E A D G)



Nice song of Motley Crue.

Intro:
G|----||-------------------||
D|----||-00-11-22-33-4-5---||
A|----||-------------------||2X
E|-12/||-------------------||

Intro/Chorus:
G|--------------------------------------||
D|--------------------------------------||
A|3-3-32-1-0-0-0----------------------5-||2x
E|---------------4-3-1-1-1-0-1-3-1-0----||

Pre-Verse:    3x                 1x
G|--------------||-----------------||
D|----1---------||-----------------||
A|33----1-1-----||33-22-11-00------||
E|--------------||------------4-3--||

Verse:
G|----------------------------------------------------------------||
D|----------------------------------------------------------------||
A|-33--x3-33--x3-1515--x15-1515--x15-33--x3-33-x3--3-2-1-0--------||
E|---------------------------------------------------------4-3----||

Verse(continued):
G|----------------------------------------------------||
D|----------------------------------------------------||
A|11--x1-11--x1-11--x1-11--x1-00--x0-00--x0-00--x0-00-||
E|----------------------------------------------------||

Pre-Chorus:
G|-------------------------------------||
D|-------------------------------------||
A|-33----44----33----33-22-11-00-------||
E|-------------------------------4-3---||
[ Tab from: http://www.guitartabs.cc/tabs/m/motley_crue/generation_swine_btab.html ]
Chorus:                              4x
G|--------------------------------------||-------------||
D|--------------------------------------||-------------||
A|-3-3-32-1-0-0-0----------------------5||3-2-1-0------||
E|----------------4-3-1-1-1-0-1-3-1-0---||--------4-3--||

Pre-Verse

Verse again

Pre-Chorus:                        3x
G|------------------------------------||
D|------------------------------------||
A|-33----44----55----33-22-11-00------||
E|-------------------------------4-3--||
                                                            continue
Pre-Solo:                    2x                             -------ญญญญญญ-
G|-----------------------------||------------------------------------------------||
D|-----------------------------||------------------------------------------------||
A|-1/13-13--------1/13-13----66||11111111-44444444-------------------------------||
E|----------2-22-----------2---||------------------44444444-22222222--2-1-2-3-4-5||

Solo:                                    
G|------------------------------------------||
D|------------------------------------------||
A|-8-8-87-6-5-5-5---------------------------||
E|-----------------9-8-6-6-6-5-6-8-6-5-3----||

Bridge:
G|----------------||
D|----------------||
A|----nothing-----||
E|----------------||

Before the last chorus you play
the chorus but you play slowly

After you play chorus
Comments